Ads

Tifa's Theme (Final Fantasy VII) Guitar Tab

Submitted: Apr 13, 2020 by shirobara (Last updated: Apr 25, 2020)

5
Average: 5 (1 vote)
Download | Listen
Game: Final Fantasy VII
Composer(s): Nobuo Uematsu
Style: Fingerstyle
Series: Final Fantasy

AutoScroll: Slow | Medium | Fast
I'm a beginner arranger so I did just the melody by ear and found the chords elsewhere. Tell me what you think

E|-8-------------------|-3--------------3----|-6----5--------------|-----------3---------|
B|----------------5----|-----------2---------|---------------------|-5----6--------------|
G|-----------5---------|------3--------------|----------------5----|----------------3----|
D|------7--------------|---------------------|-----------7---------|---------------------|
A|-8-------------------|-1-------------------|------8--------------|-----------1---------|
E|---------------------|---------------------|---------------------|---------------------|


E|------3----8---------|-----------3---------|------3----6----6----|-5---------5---------|
B|-2-------------------|------5--------------|-2-------------------|------8--------------|
G|---------------------|-5--------------3----|----------------5----|---------------------|
D|----------------7----|---------------------|----------------7----|---------------------|
A|-----------8---------|-----------1---------|----------------8----|---------------------|
E|---------------------|---------------------|---------------------|---------------------|


E|-8-------------------|-3--------------3----|-6----5--------------|-----------3---------|
B|----------------5----|-----------2---------|---------------------|-5----6--------------|
G|-----------5---------|------3--------------|----------------5----|----------------3----|
D|------7--------------|---------------------|-----------7---------|---------------------|
A|-8-------------------|-1-------------------|------8--------------|-----------1---------|
E|---------------------|---------------------|---------------------|---------------------|


E|------3----8---------|-----------3---------|------3----6----6----|-5---------5---------|
B|-2-------------------|------5--------------|-2-------------------|------8---------6----|
G|---------------------|-5--------------3----|----------------5----|---------------------|
D|----------------7----|---------------------|----------------7----|---------------------|
A|-----------8---------|-----------1---------|----------------8----|---------------------|
E|---------------------|---------------------|---------------------|---------------------|


E|------5--------------|------5---------5----|-----------5---------|-5-------------------|
B|-8---------8---------|-----------8---------|----------------8----|---------------------|
G|---------------------|-5-------------------|-5----5--------------|------6----6----8----|
D|---------------------|---------------------|---------------------|---------------------|
A|---------------------|------8--------------|-----------8---------|---------------------|
E|---------------------|---------------------|---------------------|------6--------------|


E|----------------5----|------5--------------|-5---------5----8----|-----------8----13---|
B|---------------------|-8-------------------|------8--------------|------5--------------|
G|-6----5----5---------|-----------5----5----|---------------------|-5-------------------|
D|------7--------------|---------------------|---------------------|---------------------|
A|------8---------8----|---------------------|-8--------------0----|---------------------|
E|---------------------|---------------------|---------------------|---------------------|


E|-12---10-------------|---------------------|---------------------|----------------5----|
B|----------------11---|-10---11-------------|-11---10---11---8----|-8----6----8----5----|
G|-----------7---------|-----------7----7----|---------------------|----------------5----|
D|---------------------|---------------------|---------------------|----------------7----|
A|------5----10--------|----------------10---|----------------7----|----------------8----|
E|------6--------------|---------------------|----------------8----|---------------------|


E|-5----5--------------|------6----5---------|-3--------------1----|-3-------------------|
B|-----------8----7----|-8--------------8----|------6----3---------|---------------------|
G|---------------------|---------------------|---------------------|-0-------------------|
D|------5--------------|------5--------------|-3-------------------|-0-------------------|
A|------6--------------|------6--------------|-5-------------------|-1-------------------|
E|---------------------|---------------------|---------------------|-3-------------------|



Login or Register to remove this ad.

1 comment on Tifa's Theme

nice first tab

nice first tab! only thing i will say is that i think the first line goes more like this

E|-8-------------------|
B|----------------6----|
G|-----------5---------|
D|------7--------------|
A|-8-------------------|
E|---------------------|

note timings could be worked on too (i.e. correct amount of notes per bar) but knowing the song makes it easy enough to play as is. good job!