Ads

Tifa's Theme (Final Fantasy VII) Guitar Tab

Submitted: Jan 19, 2019 by guitarsvd (Last updated: Jan 26, 2019)

5
Average: 5 (7 votes)
Download | Listen
Game: Final Fantasy VII
Composer(s): Nobuo Uematsu
Style: Arrangement, Artificial harmonics, Natural harmonics
Series: Final Fantasy

AutoScroll: Slow | Medium | Fast
Tifa's Theme                                   


                                                                       GuitarSVD
Track 1



      ^                    ^                                       
      W                    H.           Q       H.           Q     
E||--10----------------|----------------8----|--7-----------------|
B||---8----------------|--10-----------------|--0-----------------|
G||---7----------------|---8-----------------|--0-----------------|
D||--------------------|--10-----------------|---------------0----|
A||---9----------------|--10-----------------|--------------------|
D||--------------------|---------------------|--------------------|


                              ^                    ^                  
  E  E  E  E  E  E  E  E      W                    H.           Q     
--L-----------------5--2--|--10----------------|----------------8----|
--------------0--3--------|---8----------------|--10-----------------|
-----------0--------------|---7----------------|---8-----------------|
--------0-----------------|---9----------------|--10-----------------|
-----2--------------------|--------------------|---8-----------------|
--5-----------------------|--------------------|---------------------|


   E  E  E  E  Q    E  E     E  E  Q    Q    Q       H        E  E  E    E   
---8--7--5--7--L----------|-----------------------|-----------------7-------|
--10--8--7--8--L----8-----|-----------------------|-------------------------|
---0-------------------7--|--5-----4--------------|--------------7----------|
--------------------------|-----2--L----5----2----|--0-----------------<>7--|
--------------------------|--0--------------------|-------------------------|
--------------------------|-----------------------|--0----------------------|


  E  E  E  E  E  E  E    E     E  E  E   E   E  E   E  E   
--7-----------------7-------|--7--------------------------|
-----------0--L-------------|-----------------------------|
-----7-----------7----------|-----8-------------8--10--8--|
-----0--7--------------<>7--|--------7--10---L------------|
----------------------------|-----------------------------|
--5-------------------------|--5--------------------------|


  E  E  E  E  E  E  E  E     E  E  E  E  E  E  E    E   
--------------------------|--------------------7-------|
-----------0--L-----0-----|-----------0--L-------------|
--7-----------------------|--L--------------7----------|
-----0--7--------7-----0--|-----0--7--------------<>7--|
--------------------------|----------------------------|
--5-----------------------|--5-------------------------|


  E  E  E  E  E  E  E    E     E   E  E  E  E  E   E   E   
--7-----------------7-------|--7--10-----------7--15--14--|
-----------0--L-------------|------7-----7--L-------------|
-----7-----------7----------|---------7-------------------|
-----0--7--------------<>7--|-----------------------------|
----------------------------|-----------------------------|
--5-------------------------|--9--------------------------|


                          NH                               
   E  E   E  E   E  E     Q       E  E  E  E  E  E  E  E   
--12---------------------------|--8--------------0--8--7--|
-------------------------------|-----------5--L-----------|
------0------0---9-------------|--------5-----------------|
---------10------------<>12----|-----7--------------------|
----------------11-------------|--0-----------------------|
--10----------------9----------|--------------------------|


  E  E  E  E  E  E  E  E     E  E  E  E  E  E  E  E   
--8--0-----------0--8--7--|--8--5-----------5--3--5--|
-----------5--L-----------|-----------7--L-----------|
--------5-----------------|--------7-----------------|
-----7--------------------|-----0--------------------|
--0-----------------------|--------------------------|
--------------------------|--0-----------------------|


  E  E  E  E  E  E  E  E     E  E  E  E  Q     Q     
--7-----------------------|-------------------------|
-----------0--L-----0-----|-----------0--5----12----|
--------------------------|--------0----------------|
--------7--------7--------|-----2-------------------|
-----6-----------------6--|-------------------------|
--5-----------------------|--5----------------------|


   E   E   E   E  Q    E   E     E  E  H        E  E   
------------------8----7------|--5--------------0--3--|
--12--10------10----------10--|--------8--------------|
----------13------------------|--------7--------------|
--10--------------7-----------|-----5-----------------|
---8--------------------------|--7--------------1-----|
------------------------------|-----------------------|


  E  E  E  E  Q    E  E     E  E  E  E  E  E  E  E     E  E  E  E  E  E  E  E   
--5----------------5--3--|--3-----------2-----------|--------------------------|
-----------3--2----------|--------1--3--3-----0-----|--0--------0--L-----0-----|
--------4-----2----------|-----2-----------------2--|--------2--------------2--|
-----2-------------------|--0--------------0--------|-----0-----------0--------|
--0----------------------|--------------------------|--------------------------|
-------------------------|--------------0-----------|--5-----------------------|


  E  E  E  E  E  E  E  E     Q    E  Q    E  E  E     E  E  Q    E  E  E  E   
--------------------------|------------------3-----|-------------------------|
--0-----------------------|----------0----L-----3--|--1-----0----------0-----|
--------------------------|-------2----------------|-------------0--------2--|
-----1-----------1--3--1--|--0---------------------|-----2----------0--------|
--------0--3--L-----------|------------------------|--0----------------------|
--5-----------------------|--5---------------------|-------------0-----------|


  E  E  E  E  E  E  E  E     E  E  E  E  E  E  E  E   
--------------------------|--------------------3--2--|
--0--------0--L-----0-----|--0--3-----2--3--0--------|
--------2--------------2--|--------4--L--------------|
-----0-----------0--------|-----4--------------------|
--------------------------|--2-----------------------|
--5-----------------------|--------------------------|


  E  E  E  E  E  E  E  E     E  E  E  E  E  E  E  E   
--0-----------0-----------|--------------------------|
-----------1--------3-----|--1--------0--1-----1--0--|
--------0-----1-----------|--------2-----------------|
-----2-----------2-----2--|-----2-----------2--------|
--3-----------------------|--0-----------------------|
--------------------------|--------------------------|


  E  E  E  E  E  E  E  E     E  E  E  E  E  E  E  E   
--------------------------|-----------3--L-----------|
--1-----------1-----1--0--|--1-----4-----------------|
--------2--4--------------|-----2-----------2--0--2--|
-----2-----------2--------|-----1--------------------|
--0-----------------------|--3-----------------------|
--------------------------|--------------------------|


  E  E  E  E  E  E  E  E     E  E  E  E  Q     Q     
-----------------------5--|--4--------4--L----------|
--0--------3-----0--3-----|--------3----------12----|
--------4-----2-----------|-----4-------------------|
-----4--------3-----------|--2----------------------|
--2-----------------------|-------------------------|
--------------------------|-------------------------|


   E   E   E   E  Q    E   E      E  E  E  E  Q    E  E   
------------------8----7------|--------------------7--8--|
--12--10------10----------10--|--10--------7--8----------|
----------13------------------|---------9----------------|
--10--------------7-----------|------9-------------------|
---8--------------------------|---7----------------------|
------------------------------|--------------------------|


  E  E  E  E   E  E  E  E     E.  T T Q    Q    E  E   
--7--5--4--5--10--7--5--7--|--5---7-5-----------0--3--|
--6------------------------|--5-------8---------------|
--5------------------------|--------------------------|
---------------------------|--------------------0-----|
---------------------------|--------------------------|
---------------------------|--------------------------|


  E  E  E  E  E  E  E  E     E  E  E  E  H           E  E  E  Q    E  Q     
--5--------------------0--|--3-----------2--------|--3---------------------|
-----------3--2-----2-----|--------0--1--3--------|-----------0----3--1----|
--------2--------2--------|-----2--------2--------|--------2--0------------|
-----2--------------------|--0--------------------|-----0------------------|
--0-----------------------|-----------------------|------------------------|
--------------------------|-----------------------|--5---------------------|


  H        E  E  E  E     E  E  E  E  E  E  E  E     E  E  E  E  E  E  E  E   
-----------------8--5--|--7--0-----------5--------|-----------------3-----0--|
--0--------------------|-----------5--L-----0--1--|--3--------2--3-----0-----|
--0-----------7--------|--------5-----------------|--------4-----------------|
-----------------------|-----5--------------------|-----4--------------------|
-----------------------|--3-----------------------|--2-----------------------|
--5--------------------|--------------------------|--------------------------|


  E  E  E  E  E  E  E  E     E  E  E  E  E  E  E  E   
--------5-----------------|-----3--------------8--5--|
--3--1-----3--L--1--0--1--|--0--------------3--------|
--------2-----------------|--------------0-----------|
-----2--------0-----1-----|--------2--4--------------|
--0-----------------------|-----2--------------------|
--------------------------|--2-----------------------|


  E  E  E  E  E  E  E  E     E  E  E  E  E  E  E  E     E  E  E  E  E  E  Q     
--7--0-----------5--------|-----------------------2--|--4----------------------|
-----------5--L-----0--1--|--3--------3-----0--3-----|-----2--L-----------2----|
--------5-----------------|--------2-----1-----------|--------2--4-----2-------|
-----5--------------------|-----4--------------------|-----2--------0----------|
--3-----------------------|--2-----------2-----------|--0----------------------|
--------------------------|--------------------------|-------------------------|


  H        Q    Q       H        H           Q    Q    Q    Q     
---------------------|--4--------2--------|----------------------|
----------------2----|--2--------2--------|-----------------2----|
--2--------4---------|--2--------2--------|-------2----4---------|
--2------------------|--------------------|--2--------------2----|
--0------------------|--------------------|--0-------------------|
---------------------|--4-----------------|----------------------|


  Q    Q    Q    Q       E  E  E  E  E  E  Q       E  E  E  E  E  E  E  E   
--0-------------------|--------------------0----|--4-----------2-----------|
-------3---------0----|--------0-----2-----2----|-----------2-----2--------|
--2---------2---------|--2-----2-----2----------|--------2-----------2-----|
------------0---------|-----2-----2-----2-------|-----4-----------------4--|
--3-------------------|--0----------------------|--------------------------|
----------------------|-------------------------|--4-----------------------|


  E  E  E  E  E  E  Q       E  E  E  E  Q    Q       H        Q    Q     
-------------------------|--0---------------------|----------------0----|
--------------------2----|--------------3---------|--2--------0---------|
--------2-----4----------|-----------2--L---------|---------------------|
-----2-----2-----2-------|-----0--4----------4----|--4------------------|
--0----------------------|-------------------4----|--2------------------|
-------------------------|--0---------------------|---------------------|


  E  E  E  E  Q    Q       E  E  E  E  E  E  Q       E  E  E  E  E  E  E  E   
--3--------1------------|--0-----------------3----|--3--2--0--2--0-----------|
--------3---------------|-----------1--3--0--3----|--5--3--1--3--1--3--2--3--|
-----2-------------2----|--------0--------0-------|-----------------4--3--4--|
--0--------0--L---------|-----3-------------------|--------------------------|
------------------------|-------------------------|--------------------------|
------------------------|--3----------------------|--0-----------------------|


  E  E  E  E  E  E  E  E     H        H           H        E  E  E  E   
--------------------------|--------------------|-----------------------|
--1--0-----0--------------|--------------------|-----------------0-----|
--------2-----2--0-----0--|--0-----------------|--------------------2--|
--0-----------------4-----|--0--------4--------|--L-----------0--------|
--------------------------|--------------------|-----------------------|
--------------------------|-----------0--------|--L--------------------|


  E  E  E  E  E  E  E  E     E  E  E  E  E  E  E  E     Q    E  Q    E  E  E   
--------------------------|--------------------------|------------------------|
--0--------0--L-----0-----|--0-----------------------|----------0----L--0-----|
--------2--------------2--|--------------------------|-------2-------2--------|
-----0-----------0--------|-----1-----------1--3--1--|--0------------------0--|
--------------------------|--------0--3--L-----------|------------------------|
--5-----------------------|--5-----------------------|--5---------------------|


  E  E  E  E  E  E  E  E     E  E  E  E  E  E  E  E   
--------------------------|--------------------------|
-----------0--1-----0-----|--0--------0--L-----0-----|
--------2--------------2--|--------2--------------2--|
-----0-----------0--------|-----0-----------0--------|
--------------------------|--------------------------|
--5-----------------------|--5-----------------------|


  E  E  E  E  E  E  E  E     E  E  E  E  E  E   E   E   
--------------------3--2--|--0-----0-----0--4------10--|
--0--3-----2--3--0--------|--------1--4--------12------|
--------4--L--------------|-----0----------------------|
-----4--------------------|----------------------------|
--2-----------------------|--3-------------------------|
--------------------------|----------------------------|


   Q     Q    E  E  E  E     E  E  E  E  E  E  E  E   
--13----12-------0--8--7--|--8--------------0--8--7--|
--------10----------------|-----------5--L-----------|
---------9----------------|--------5-----------------|
--------------------------|-----7--------------------|
---0----------------------|--0-----------------------|
--------------------------|--------------------------|


  E  E  E  E  E  E  E  E     E  E  E  E  E  E  E  E     E  E  E  E  Q     Q     
--8--5-----------5--3--5--|--7-----------5--------5--|--4--------4--L----------|
-----------7--L-----------|-----------7--L-----3-----|--------5----------12----|
--------7-----------------|--------7--------4--------|-----4-------------------|
-----0--------------------|-----7--------3-----------|--2----------------------|
--------------------------|--------------------------|-------------------------|
--0-----------------------|--9-----------------------|-------------------------|


   E   E   E   E  Q    E   E      E  E  E  E  Q    E  E   
------------------8----7------|--------------------7--8--|
--12--10------10----------10--|--10--------7--8----------|
----------13------------------|---------9----------------|
--10--------------7-----------|------9-------------------|
---8--------------------------|---7----------------------|
------------------------------|--------------------------|


  E  E  E  E   E  E  E  E     E.  T T Q    Q    E  E   
--7--5--4--5--10--7--5--7--|--5---7-5-----------0--3--|
--6------------------------|--5-------8---------------|
--5------------------------|--------------------------|
---------------------------|--------------------0-----|
---------------------------|--------------------------|
---------------------------|--------------------------|


  E  E  E  E  E  E  E  E     E  E  E  E  H           E  E  E  Q    E  Q     
--5--------------------0--|--3-----------2--------|--3---------------------|
-----------3--2-----2-----|--------0--1--3--------|-----------0----3--1----|
--------2--------2--------|-----2--------2--------|--------2--0------------|
-----2--------------------|--0--------------------|-----0------------------|
--0-----------------------|-----------------------|------------------------|
--------------------------|-----------------------|--5---------------------|


  E  E  E  E  Q    E  E     W                  
-------------------------|--3----------------||
--0----------------1-----|--0----------------||
-----------0--L-------2--|--0----------------||
--------7----------------|-------------------||
-----6-------------------|-------------------||
--5----------------------|--5----------------||




Duration Legend
---------------
W - whole
H - half
Q - quarter
E - 8th
S - 16th
T - 32nd
X - 64th
. - note dotted
|-n-|  - n-tuplets


Tablature Legend
----------------
L - tied note
x - dead note
g - grace note
(n) - ghost note
> - accentuded note
NH - natural harmonic
AH - artificial harmonic
TH - tapped harmonic
SH - semi harmonic
PH - pitch harmonic
h - hammer on
p - pull off
b - bend
br - bendRelease
pb - preBend
pbr - preBendRelease
brb - bendReleaseBend
\n/ - tremolo bar dip
\n - tremolo bar dive
-/n - tremolo bar Release up
/n\ - tremolo bar inverted dip
/n - tremolo bar return
-\n - tremolo bar Release down
S - shift slide
s - legato slide
/ -  slide into from below or out of upwards
\ -  slide into from above or out of downwards
~ - vibrato
W - wide vibrato
tr - trill
TP - tremolo picking
T - tapping
S - slap
P - pop
< - fade in
^ - brush up
v - brush down
Login or Register to remove this ad.

2 comments on Tifa's Theme

Woah

Woah

Thanks for uploading this,

5

Thanks for uploading this, it's VERY good!

Favorited!