Ads

Tifa's Theme (Duet) (Final Fantasy VII) Guitar Tab

Submitted: Jun 08, 2010 by TheDoomOfAllFires (Last updated: Jun 08, 2010)

5
Average: 5 (1 vote)
Download | Listen
Game: Final Fantasy VII
Composer(s): Nobuo Uematsu
Style: 2 or more instruments, Arrangement, Fingerstyle
Series: Final Fantasy

AutoScroll: Slow | Medium | Fast
Title: Tifa's Theme (Duet)
Artist: Nobuo Uematsu
Album: FF VII
Music: Nobuo Uematsu
Copyright: Nobuo Uematsu / Square-Enix
Tabber: TheDoomOfAllFires
Tempo = 80
Capo = 1 (2nd Guitar only)

Hope you like it ! ^^


Guitar 1 :

                                                                  
E ||-8----|--3--------6----|--5----|----|--8----|--3--------6----|
B ||-6----|--2-------------|--6----|----|--6----|--2-------------|
G ||o-----|----------------|-------|----|-------|----------------|
D ||o-----|----------------|-------|----|-------|----------------|
A ||------|----------------|-------|----|-------|----------------|
E ||------|----------------|-------|----|-------|----------------|

                                                               
--6--5--3--5L-5-------------|---||--6--5--3--5--------1-------|
----------------------------|---||----------------------------|
--6--5--3--5L-5-------------|--o||--6--5--3--5--------2-------|
----------------------------|--o||----------------------------|
----------------------------|---||----------------------------|
----------------------------|---||----------------------------|

                                                     
--3h-5h-3L----------------3-------------------------|
----------------------------------------------------|
--3L-3L-3L----------------3-------------------------|
----------------------------------------------------|
----------------------------------------------------|
----------------------------------------------------|

                                                          
--------------------5-------|--5-----------------5-------|
-----------------------8----|-----------------------8----|
-----------------5----------|-----5L-------5--5----------|
----------------------------|----------------------------|
----------------------------|----------------------------|
----------------------------|----------------------------|

                                                                  
--5-------------------------|-------|--------------------5-------|
--------------------4-------|-------|-----------------------8----|
-----6L-------6--6-----6----|--5----|-----------------5----------|
----------------------------|-------|----------------------------|
----------------------------|-------|----------------------------|
----------------------------|-------|----------------------------|

                                                                  
--5-----------------5-------|--5s-8L-------8-----13h12---|--10---|
-----------------------8----|-----------------10---------|-------|
-----5L-------5--5----------|----------------------------|-------|
----------------------------|----------------------------|-------|
----------------------------|----------------------------|-------|
----------------------------|----------------------------|-------|

                                                          
--------------------6--5----|--6-----------------6--5----|
----------------------------|----------------------------|
-----------------7----------|-----7L-------7--7----------|
----------------------------|----------------------------|
----------------------------|----------------------------|
----------------------------|----------------------------|

                                                ^     
--6-------------------------|--5----|-----------5----|
-----8L-------8--8--6--8----|-------|----------------|
----------------------------|-------|-----------5----|
----------------------------|-------|-----------3----|
----------------------------|-------|----------------|
----------------------------|-------|----------------|

                                                                         ^
--5--3--2--3--6-----5--3----|--3-----1--------------1----|--3----|----|--7----||
----------------------------|--------------------3-------|-------|----|--8----||
----------------------------|----------------------------|-------|----|--7----||
----------------------------|----------------------------|-------|----|-------||
----------------------------|----------------------------|-------|----|-------||
----------------------------|----------------------------|-------|----|-------||


________________________________________________________________________________
________________________________________________________________________________



Guitar 2 : 

                                                             
E ||---------------------------|----------------------------|
B ||---------------------------|----------------------------|
G ||o---------1L-1-------------|-----------2L-2-------------|
D ||o------2-------------------|--------2-------------------|
A ||----2----------------------|-----3----------------------|
E ||-0-------------------------|--0-------------------------|

                                                          
----------------------------|----------------------------|
----------------------------|----------------------------|
-----------1L-1-------------|-----------1L-1-------------|
--------2-------------------|--------2-------------------|
-----2----------------------|-----2----------------------|
--0-------------------------|--0-------------------------|

                                                          
----------------------------|----------------------------|
----------------------------|----------------------------|
-----------1L-1-------------|-----------2L-2-------------|
--------2-------------------|--------2-------------------|
-----2----------------------|-----3----------------------|
--0-------------------------|--0-------------------------|

                                                          
----------------------------|---------------------------||
----------------------------|---------------------------||
-----------1L-1-------------|-----------1L-1-----------o||
--------2-------------------|--------2-----------------o||
-----2----------------------|-----2---------------------||
--0-------------------------|--0------------------------||

                                                                 ^     
----------------------------|----------------------------|----|-------|
----------------------------|-----------3L-3-------------|----|--0----|
-----------1L-1-------------|--------4-------------------|----|--1----|
--------2-------------------|-----4----------------------|----|--2----|
-----2----------------------|--2-------------------------|----|--2----|
--0-------------------------|----------------------------|----|--0----|

                                                          
----------------------------|----------------------------|
-----------1L-1-------------|-----------0L-0-------------|
-----------2L-2-------------|-----------1L-1-------------|
--------2-------------------|--------2-------------------|
-----3----------------------|-----2----------------------|
--0-------------------------|--0-------------------------|

                                                          
----------------------------|----------------------------|
----------------------------|----------------------------|
----------------------------|-----------1L-1-------------|
--------2s-4-----2-----2----|--------2-------------------|
-----2--------------2-------|-----2----------------------|
--0-------------------------|--0-------------------------|

                                                          
----------------------------|----------------------------|
----------------------------|----------------------------|
-----------4L-4-------------|--------2-----------1-------|
--------6-------------------|-----2-----2-----2-----2----|
-----6----------------------|--0-------------------------|
--4-------------------------|--------------4-------------|

                                                          
----------------------------|----------------------------|
----------------------------|----------------------------|
-----------2L-2-------------|-----------2L-2-------------|
--------4-------------------|--------4-------------------|
-----4----------------------|-----4----------------------|
--2-------------------------|--2-------------------------|

                                                          
-----------2L-2-------------|----------------------------|
-----------4L-4-------------|-----------0L-0-------------|
--------2-------------------|-----------1L-1-----2-------|
-----4----------------------|--------2-----------4-------|
--2-------------------------|-----2----------------------|
----------------------------|--0-------------------------|

                                                          
----------------------------|-----------2----------------|
----------------------------|--------3--------3----------|
--4--------2--------1-------|-----2--------------2-------|
--6--------4--------2-------|--0--------------------0----|
--------2--------2-----2----|----------------------------|
--0-----------0-------------|----------------------------|

                                                            ^       ^
----------------------------|----------------------------|--2----|--2----||
----------------------------|--------------2--------2----|--2----|--2----||
--------6--------------6----|-----------3--------3-------|--3----|--3----||
-----6-----6--------6-------|--------4--------4----------|--4----|--4----||
--4--------------4----------|-----4----------------------|--4----|--4----||
----------------------------|--2-------------------------|--2----|--2----||





Legend
L - tied note
x - dead note
h - hammer on/pull off
b - bend
s - slide
~ - vibrato
g - ghost note
> - accentuated note
t - trill
M - palm mute
. - staccato
P - popping (bass)
S - slapping (bass)
+ - tapping
W - wide vibrato
< - fade in
w - whammy bar
= - tremolo picking
v - brush up
^ - brush down
V - pick stroke up
n - pick stroke down
Login or Register to remove this ad.

1 comment on Tifa's Theme (Duet)

Yaaay more duets!

5

Yaaay more duets