Ads

Temple of the Ancients (Final Fantasy VII) Guitar Tab

Submitted: Feb 09, 2010 by musenji (Last updated: May 29, 2012)

5
Average: 5 (3 votes)
Download | Listen
Game: Final Fantasy VII
Composer(s): Nobuo Uematsu
Style: Fingerstyle, Transcription
Series: Final Fantasy

This song is also called Forested Temple

AutoScroll: Slow | Medium | Fast
Final Fantasy VII
Temple of the Ancients
composed by Nobuo Uematsu
tabbed by musenji, 2006

I'm submitting this mostly because I think this way of organizing
the accompaniment tab makes it easier to handle.  There is also
a slight change at the end.

Learn each labelled section, then play them according to the list
below (grouped in fours for convenience).

A A B B  B B A A  B B B B  B B B B  C D D C  E E E E


 A:                                  B:
|-----------------------------------|-----------------------------------|
|--------0-------1-------2-------1--|--------1-------1-------1-------1--|
|------0-------0-------0-------0----|------2-------2-------2-------2----|
|----2-------2-------2-------2------|----2-------3-------4-------3------|
|-----------------------------------|--0-------0-------0-------0--------|
|--0-------0-------0-------0--------|-----------------------------------|

 C:                                  D:
|-----------------------------------|--------2-------2-------2-------2--|
|--------0-------0-------0-------0--|------3-------3-------3-------3----|
|------0-------0-------0-------0----|----2-------3-------4-------3------|
|----0-------2-------4-------2------|--0-------0-------0-------0--------|
|-----------------------------------|-----------------------------------|
|--3-------3-------3-------3--------|-----------------------------------|

 E:
|--------1-------1-------1-------1--|
|------3-------3-------3-------3----|
|----2-------3-------4-------3------|
|--0-----0-0-------0-------0--------|
|--------^---------------------0----|
|-----------------------------------|

Note: For the first "E", do not play the note with the arrow.


Play along with the game music, or find yourself some collaborators!
Login or Register to remove this ad.