Ads

Temple of the Ancients (Final Fantasy VII) Guitar Tab

Submitted: Apr 02, 2013 by JordanVS

4.875
Average: 4.9 (8 votes)
Download | Listen
Game: Final Fantasy VII
Composer(s): Nobuo Uematsu
Style: Arrangement, Artificial harmonics, Fingerstyle
Series: Final Fantasy

This song is also called Forested Temple

AutoScroll: Slow | Medium | Fast
Forested Temple                                       
Temple of the Ancients
Final Fantasy VII
Nobuo Uematsu
JordanVS


*The Accentuated Notes represent the main melody.
*In measures 7-8 the melody is one octave lower 
because it's a lot easier that way XD
*In measure 13-17 and 22 the harmonics can be kinda 
hard to play so you can just try to pick at a different 
way with your left hand,or try another intensity.Play 
what's best for you ;D


      >     >     >                                         >     >     >            
      E  E  E  E  E  E  E  E     E  E  E  E  E  E  E  E     E  E  E  E  E  E  E  E   
E||---------------0-----------|--------------------------|--------------0-----------|
B||---3-----4--------------1--|-----------2-----------1--|--3-----4--------------1--|
G||*--------0--4--------0-----|--------0-----------0-----|--------0--4--------0-----|
D||*-----2-----------2--------|-----2-----------2--------|-----2-----------2--------|
A||---------------------------|--------------------------|--------------------------|
E||---0-----------0-----------|--0-----------0-----------|--0-----------0-----------|


                             >  >  >  >  >     >  >     >     >     >            
  E  E  E  E  E  E  E  E     E  E  E  E  E  E  E  E     E  E  E  E  E  E  E  E   
--------------------------|--5--4--3--2--1-----0--0--|--8-----5-----5-----------|
-----------2-----------1--|-----------1-----------1--|-----------------------1--|
--------0-----------0-----|--------2-----------2-----|-----------5--------2-----|
-----2-----------2--------|-----2-----------3--------|-----4--7--------3--------|
--------------------------|--0-----------0-----------|--0-----------0-----------|
--0-----------0-----------|--------------------------|--------------------------|


  >        >  >     >  >     >  >  >     >              >  >  >  >  >     >  >   
  E  E  E  E  E  E  E  E     E  E  E  E  E  E  E  E     E  E  E  E  E  E  E  E   
--0-----------------------|--------------------------|--5--4--3--2--1-----0--0--|
-----------0--1-----0-----|--------1--------------1--|-----------1-----------1--|
--------2--------------2--|--------------2-----2-----|--------2-----------2-----|
-----2-----------3--------|--3--2-----4-----3--------|-----2-----------3--------|
--0-----------0-----------|--0-----------0-----------|--0-----------0-----------|
--------------------------|--------------------------|--------------------------|


  >     >     >              >     >     >              >     >     >           
  E  E  E  E  E  E  E  E     E  E  E  E  E  E  E  E     E  E  E  E  H           
--8-----5-----5-----------|--3-----4-----5-----------|------------------------||
-----------------------1--|-----------1-----------1--|------------------------||
-----------5--------2-----|--------2-----------2-----|--0-----1-----2--------*||
-----4--7--------3--------|-----2-----------3--------|-----2--------2--------*||
--0-----------0-----------|--0-----------0-----------|--0--------0------------||
--------------------------|--------------------------|------------------------||


   >     >     >       >          >     >     >     >        >     >     >       >      
   E  E  E  E  E  E    E  E       E  E  E  E  E  E  E  E     E  E  E  E  E  E    E  E   
---------0-----------<>0-----|----------0-----------------|----------------------------|
---------------1-------------|--<>1-----------1-----------|--------1-----------<>1-----|
*----------------------------|----------------------2-----|--------------2-------------|
*-----2-----2-----3-------3--|-------4-----4-----3-----3--|-----2-----2-----3-------3--|
---0-------------------------|----0-----------------------|--3-------------------------|
-----------------------------|----------------------------|----------------------------|


    >     >     >     >            >     >     >                                         
    E  E  E  E  E  E  E  E         E  E  E  E  E  E  S S S S    E  E  E  E  E  E  E  E   
-----------------------------||------------------------------|--------------------------|
----------1------------------||----------1-------------0-1-2-|--3--1--0--1--0-----------|
--<>2-----------2-----------*||--<>2-----------2-----2-------|--0--------------2--0--2--|
-------4-----4-----3-----3--*||-------4-----4-----3----------|--0-----------2-----------|
----0-----------------3------||----0-------------------------|--------------------------|
-----------------------------||------------------------------|--------------------------|


  Q    E  E  E  E  E  E     E  E  E  E  E  E  E  E     E  E  E  E  E  E  E  E   
-------------------------|--5--3--2--3--5--------2--|-----------2-----------2--|
----------0-----------0--|--------------------3-----|--------3-----------3-----|
-------0-----------0-----|-----2-----------3--------|-----4-----------3--------|
--4-------------2--------|--0-----------0-----------|--0-----------0-----------|
-------------------------|--------------------------|--------------------------|
--3----------3-----------|--------------------------|--------------------------|


    >    >    >    >    >                                       
    E    E    E    E    E  E  E  E     E  E  E  E  E  E  E  E   
--<>5--<>3--<>2--<>3--<>5--------2--|-----------2-----------2--|
------------------------------3-----|--------3-----------3-----|
---------2-----------------3--------|-----4-----------3--------|
----0-------------------0-----------|--0-----------0-----------|
------------------------------------|--------------------------|
------------------------------------|--------------------------|


  E  E  E  E  E  E  E  E     Q    E  E  E  E  E  E     E  E  E  E  E  E  E  E   
--------------------------|-------------------------|--1--0-----------------1--|
--3--1--0--1--0-----------|----------0-----------0--|--------3-----3-----3-----|
--0--------------2--0--2--|-------0-----------0-----|-----------2-----3--------|
--0-----------2-----------|--4-------------2--------|--0--2--3--2--0-----------|
--------------------------|-------------------------|--------------------------|
--------------------------|--3----------3-----------|--------------------------|


  E  E  E  E  E  E  E  E     E  E  E  E  E  E  E  E     E  E  E  E  Q    S S S S  
-----------1-----------1--|-----------1-----------1--|-----------1---------------|
--------3-----------3-----|--------3-----------3-----|--------3------------------|
-----4-----------3--------|-----2-----------3--------|-----4-------------------0-|
--0-----------0-----------|--0-----------0-----------|--0-----------0----0-2-3---|
--------------------------|--------------------------|---------------------------|
--------------------------|--------------------------|---------------------------|


  E  E  E  E  E  E  E  E     E  E  E  E  E  E  E  E     E  E  E  E  E  E  E  E   
-----------------------1--|-----------1-----------1--|-----------1-----------1--|
--------0--2--3-----3-----|--------3-----------3-----|--------3-----------3-----|
--2--0-----------3--------|-----4-----------3--------|-----2-----------3--------|
--0-----------0-----------|--0-----------0-----------|--0-----------0-----------|
--------------------------|--------------------------|--------------------------|
--------------------------|--------------------------|--------------------------|


                             ^                  
  E  E  E  E  E  E  E  E     W                  
-----------1-----------1--|--1----------------||
--------3-----------3-----|--3----------------||
-----4-----------3--------|--2----------------||
--0-----------0-----------|--0----------------||
--------------------------|-------------------||
--------------------------|-------------------||




Duration Legend
---------------
W - whole
H - half
Q - quarter
E - 8th
S - 16th


Tablature Legend
----------------
L - tied note
> - accentuded note
AH - artificial harmonic
^ - brush up
v - brush down
Login or Register to remove this ad.

2 comments on Temple of the Ancients

Awesome job!

Awesome job!

Nicely done ! Thank you !

Nicely done ! Thank you !