Ads

Stolen Materia (Final Fantasy VII) Guitar Tab

Submitted: May 30, 2010 by Daugreano

5
Average: 5 (1 vote)
Download | Listen
Game: Final Fantasy VII
Composer(s): Nobuo Uematsu
Style: Alternate picking, Transcription
Series: Final Fantasy

AutoScroll: Slow | Medium | Fast
Song: Stolen Materia
Game: Final Fantasy VII
Composer: Nobuo Uematsu
Tabbed by: Daugreano

Guitar
                                                                               .
   E   E   E   E   E   E   E   E     E   E   E   E   E   E   Q      Q    Q    Q     Q   
E|-----7---------------7-----------|-----7------------------------|---------------------|
B|-5-----------6---7-----------7---|-8-----------8----------------|-1----0----------1---|
G|---------------------------------|------------------------------|-----------3---------|
D|---------------------------------|-----------------9------------|---------------------|
A|---------------------------------|------------------------------|---------------------|
E|---------------------------------|------------------------------|---------------------|


   E   E   E   E   E   E   E   E     E   E   E   E   E   E   E   E     E   E   E   E   E   E   E   E
E|---------------------------------|---------------------------------|---------------------------------|
B|-0---11--12--0-------11--12------|-----12--------------12----------|-----12------------------0-------|
G|---------------------------------|-9-----------10--11----------11--|-12----------12------------------|
D|-----------------------------13--|---------------------------------|-----------------9---------------|
A|---------------------------------|---------------------------------|---------------------------------|
E|---------------------------------|---------------------------------|---------------------------------|

              .
   Q    Q    Q     Q     E   E   E   E   E   E   Q      E   E   E    Q   E   E   E
E|---------------------|------------------------------|------------------------------|
B|-1----0----------1---|-0----------------------------|-----12--12-------12--12------|
G|-----------3---------|-----0------------------------|------------------------------|
D|---------------------|---------1---4---2------------|------------------------------|
A|---------------------|------------------------------|------------------------------|
E|---------------------|------------------------------|------------------------------|


   H     E   E   E   E      H     Q   E   E      E   E   E   E   E   E   E     E   E   E    Q   E   E   E
E|-----------------------|------------12------|------------------------------|------------------------------|
B|---------------10--12--|----------------12--|------12--13--12------10--12--|-----12--12-------12--12------|
G|-----------12----------|--------------------|------------------12----------|------------------------------|
D|-----------------------|--------------------|------------------------------|------------------------------|
A|-----------------------|--------------------|------------------------------|------------------------------|
E|-----------------------|--------------------|------------------------------|------------------------------|


   H     E   E   E   E      H     Q   E   E     E   E   E   E   E   E   E   E     E   E   E    Q   E   E   E 
E|-----------------------|------------15------|---------12--14--12--10--11--12--|------------------------------|
B|---------------10--12--|----------------17--|---------------------------------|-----12--12-------12--12------|
G|-----------12----------|--------------------|---------------------------------|------------------------------|
D|-----------------------|--------------------|---------------------------------|------------------------------|
A|-----------------------|--------------------|---------------------------------|------------------------------|
E|-----------------------|--------------------|---------------------------------|------------------------------|


   E   E   E    Q   E   Q
E|------------------------------|
B|-----12--12-------12--12------|
G|------------------------------|
D|------------------------------|
A|------------------------------|
E|------------------------------|

Then Repeat...

Login or Register to remove this ad.