Shinra Corporation (Final Fantasy VII) Bass/Guitar Tab

Submitted: Dec 19, 2012 by hashel (Last updated: Dec 20, 2012)

0
Download | Listen
Game: Final Fantasy VII
Composer(s): Nobuo Uematsu
Style: 2 or more instruments, Alternate picking, Transcription
Series: Final Fantasy

This song is also called Shinra Theme

AutoScroll: Slow | Medium | Fast
Title: The Shinra Corporation
SubTitle: Shinra Theme
Artist: Nobuo Uematsu
Album: FF7 OST
Music: Nobuo Uematsu
Copyright: Squaresoft
Tabber: Hashel05
Tempo = 60


Melody



E |----|-------|-------|-------|-------||---------------------------|-------|
B |----|-------|-------|-------|-------||---------------------------|--10---|
G |----|-------|-------|-------|-------||o---------------8--10-12---|-------|
D |----|-------|-------|-------|-------||o8-----10----11------------|-------|
A |----|-------|-------|-------|-------||---------------------------|-------|
E |----|-------|-------|-------|-------||---------------------------|-------|


-------|-------|----------------------------|-------|-------|-------|
-------|-------|----------------------------|--10---|-------|-------|
-------|-------|-----------------8--10-12---|-------|-------|-------|
-------|-------|--8-----10----11------------|-------|-------|-------|
-------|-------|----------------------------|-------|-------|-------|
-------|-------|----------------------------|-------|-------|-------|


----------------------------|-------|-------|-------|
----------------------------|--10---|-------|-------|
-----------------8--10-12---|-------|-------|-------|
--8-----10----11------------|-------|-------|-------|
----------------------------|-------|-------|-------|
----------------------------|-------|-------|-------|


----------------------------|-------|-------|-------|
----------------------------|--10---|-------|-------|
-----------------8--10-12---|-------|-------|-------|
--8-----10----11------------|-------|-------|-------|
----------------------------|-------|-------|-------|
----------------------------|-------|-------|-------|


--------21----20-------16---|--18------------|--------21----20-------16---|
----------------------------|-----18---------|----------------------------|
----------------------------|----------------|----------------------------|
----------------------------|----------------|----------------------------|
----------------------------|----------------|----------------------------|
----------------------------|----------------|----------------------------|


--18---|--------18----17------------|----------------|
-------|-----------------------18---|--20------------|
-------|----------------------------|-----19---------|
-------|----------------------------|----------------|
-------|----------------------------|----------------|
-------|----------------------------|----------------|


--------18----17------------|-------|-------|------||----||
-----------------------18---|--20L--|--20---|------||----||
----------------------------|-------|-------|-----o||----||
----------------------------|-------|-------|-----o||----||
----------------------------|-------|-------|------||----||
----------------------------|-------|-------|------||----||


Chords



E |----|-------|-------|-------|-------||------|-------|--13-14---|--13---|
B |----|-------|-------|-------|-------||------|-------|--14-13---|--14---|
G |----|-------|-------|-------|-------||o-----|-------|--15-14---|--15---|
D |----|-------|-------|-------|-------||o-----|-------|----------|-------|
A |----|-------|-------|-------|-------||------|-------|----------|-------|
E |----|-------|-------|-------|-------||------|-------|----------|-------|


-------|-------|--15-14---|--15---|-------|-------|--13-14---|--13---|-------|
-------|-------|--15-16---|--15---|-------|-------|--14-13---|--14---|-------|
-------|-------|--15-14---|--15---|-------|-------|--15-14---|--15---|-------|
-------|-------|----------|-------|-------|-------|----------|-------|-------|
-------|-------|----------|-------|-------|-------|----------|-------|-------|
-------|-------|----------|-------|-------|-------|----------|-------|-------|


-------|--15-14---|--15---|-------|--------13-11---|--13---|--------13-11---|
-------|--15-16---|--15---|-------|--------14-13---|--14---|--------14-13---|
-------|--15-14---|--15---|-------|--------15-15---|--15---|--------15-15---|
-------|----------|-------|-------|----------------|-------|----------------|
-------|----------|-------|-------|----------------|-------|----------------|
-------|----------|-------|-------|----------------|-------|----------------|


--15---|--------15-13---|--15---|----|----|---||----||
--15---|--------15-15---|--15---|----|----|---||----||
--15---|--------15-17---|--15---|----|----|--o||----||
-------|----------------|-------|----|----|--o||----||
-------|----------------|-------|----|----|---||----||
-------|----------------|-------|----|----|---||----||

Bass



G |----|----------------------------------------------------|----------|
D |----|----------------------------------------------------|----------|
A |----|--4-----------------------4--------4L----------4L---|--4-------|
E |----|----------------------------------------------------|----------|


----------------------------------------------------|----------||
----------------------------------------------------|----------||
--4-----------------------4--------4L----------4L---|--4-------||
----------------------------------------------------|----------||


---------------------------------------------------|----------|----------------|
o--------------------------------------------------|----------|----------------|
o1-----------------------1--------1L----------1L---|--1-------|-----1----------|
---------------------------------------------------|----------|----------------|


----------------|----------------------------------------------------|
----------------|----------------------------------------------------|
-----1----------|----------------------------------------------------|
----------------|--3-----------------------3--------3L----------3L---|


----------|----------------|----------------|
----------|----------------|----------------|
----------|----------------|----------------|
--3-------|-----3----------|-----3----------|


----------------------------------------------------|----------|
----------------------------------------------------|----------|
--1-----------------------1--------1L----------1L---|--1-------|
----------------------------------------------------|----------|


----------------|----------------|
----------------|----------------|
-----1----------|-----1----------|
----------------|----------------|


----------------------------------------------------|----------|
----------------------------------------------------|----------|
----------------------------------------------------|----------|
--3-----------------------3--------3L----------3L---|--3-------|


----------------|----------------|
----------------|----------------|
----------------|----------------|
-----3----------|-----3----------|


----------------------------------------------------|
----------------------------------------------------|
--1-----1-----------------1--------1L----------1----|
----------------------------------------------------|


----------------------------|
----------------------------|
--1--1L----------1----------|
----------------------------|


----------------------------------------------------|
----------------------------------------------------|
----------------------------------------------------|
--2-----2-----------------2--------2L----------2----|


----------------------------|
----------------------------|
----------------------------|
--2--2L----------2----------|


----------------------------------------------------|
----------------------------------------------------|
----------------------------------------------------|
--3-----3-----------------3--------3L----------3----|


----------------------------|
----------------------------|
----------------------------|
--3--3L----------3----------|


----------------------------------------------------|
--1-----1-----------------1--------1L----------1----|
----------------------------------------------------|
----------------------------------------------------|


----------------------------|-------|------||----||
--1--1L----------1----------|-------|-----o||----||
----------------------------|-------|-----o||----||
----------------------------|-------|------||----||
Login or Register to remove this ad.