Ads

Sending A Dream Into The Universe (Duet) (Final Fantasy VII) Guitar Tab

Submitted: Jun 07, 2010 by TheDoomOfAllFires

5
Average: 5 (3 votes)
Download | Listen
Game: Final Fantasy VII
Composer(s): Nobuo Uematsu
Style: 2 or more instruments, Arrangement, Fingerstyle
Series: Final Fantasy

AutoScroll: Slow | Medium | Fast
Title: Sending A Dream Into The Universe
Artist: Nobuo Uematsu
Album: FF VII
Music: Nobuo Uematsu
Copyright: Nobuo Uematsu / Square-Enix
Tabber: TheDoomOfAllFires
Tempo = 90
Capo = 1

Hope you like it ! ^^


Guitar 1 :


E |-----2----|-----2----|-----2----|-----2----|-----2----|-----5----|
B |--0-------|--2-------|--3-------|--2-------|--3-------|--5-------|
G |--4-------|--2-------|--4-------|--2-------|--2-------|--6-------|
D |--4-------|--2-------|--5-------|--2-------|--4-------|--7-------|
A |--2-------|--0-------|----------|--0-------|--5-------|--0-------|
E |----------|----------|--3-------|----------|----------|----------|


--3--------0----|--2-------|--------2--0----|--2-----2--4----|
--3-----3-------|----------|--0-------------|----------------|
--4-----0-------|--4--3----|----------------|----------------|
--5-----2-------|--4--4----|--4-------------|--0-------------|
----------------|----------|--5-------------|----------------|
--3-------------|-----2----|----------------|----------------|


--5--------2----------------|-------|--------4--2----|--4-----4--6----|
--2-----------2-------------|-------|--2-------------|----------------|
----------------------------|-------|--1-------------|----------------|
----------------------------|-------|--2-------------|----------------|
----------------------------|-------|----------------|----------------|
--2-------------------------|--2----|----------------|----------------|


--7--------4----------------|--------4-------|--4--------6--7--------9----|
--4-----------4-------------|-----------7----|--5-------------------------|
----------------------------|----------------|--4-------------------------|
----------------------------|----------------|----------------------------|
----------------------------|----------------|----------------------------|
--4-------------------------|----------------|----------------------------|


--10----9--12---|--10-------7----------------|----|--9--------5----------------|
----------------|--------------7-------------|----|--------------7L------------|
----------------|----------------------------|----|----------------------------|
----------------|----------------------------|----|----------------------------|
----------------|----------------------------|----|----------------------------|
----------------|----------------------------|----|----------------------------|


--------0--3----|--2----|--2----|--2--2----|--2--2----|--2--2----|--2--2----|
--7-----0-------|-------|-------|--4--4----|--4--4----|--3--3----|--3--3----|
--------0-------|-------|-------|--4--4----|--4--4----|--4--4----|--4--4----|
----------------|-------|-------|----------|----------|----------|----------|
----------------|-------|-------|----------|----------|----------|----------|
----------------|-------|-------|----------|----------|----------|----------|


--5--5----|--5--5----|--4--4----|--4--4----|-------||
--3--3----|--3--3----|--5--5----|--5--5----|-------||
--2--2----|--2--2----|--4--4----|--4--4----|-------||
----------|----------|----------|----------|-------||
----------|----------|----------|----------|-------||
----------|----------|----------|----------|--0----||




Guitar 2 :


E |----|----|----|----|----|----|----|----|----------------------------|
B |----|----|----|----|----|----|----|----|-----------0-----------0----|
G |----|----|----|----|----|----|----|----|--------4-----4-----4-------|
D |----|----|----|----|----|----|----|----|-----4-----------4----------|
A |----|----|----|----|----|----|----|----|--2-------------------------|
E |----|----|----|----|----|----|----|----|----------------------------|


-----------0----------------|-----------2--------2-------|
--------3-----3-----3-------|--------2-----2--------2----|
-----2-----------2-----2----|-----2-----------2----------|
--0-------------------------|----------------------------|
----------------------------|----------------------------|
----------------------------|--2-------------------------|


--------------2-------------|-----------0----------------|
-----------2-----2----------|--------------5-------------|
--------2-----------2-------|--------6--------6----------|
-----4-----------------4----|-----6--------------6-------|
----------------------------|--4--------------------4----|
--2-------------------------|----------------------------|


--------0-----0-----0-------|-----------4----------------|
-----------7-----------0----|--------4-----4-----4-------|
-----4-----------4----------|-----4-----------4-----4----|
----------------------------|----------------------------|
--7-------------------------|----------------------------|
----------------------------|--4-------------------------|


--------------4-------------|----------------------------|
-----------4-----4----------|--------------0-------------|
--------4-----------4-------|-----------1-----1----------|
-----6-----------------6----|--------2-----------2-------|
----------------------------|-----2-----------------2----|
--4-------------------------|--0-------------------------|


--------------3-------------|-----------7----------------|
-----------0-----0----------|--------------7-------------|
--------0-----------0-------|--------7--------7----------|
-----0-----------------0----|-----9--------------9-------|
----------------------------|-----------------------9----|
--3-------------------------|--7-------------------------|


--------------7-------------|-----------5h-2-------------|
-----------7-----7----------|--------2-----------2-------|
--------7-----------7-------|-----2-----------------2----|
-----9-----------------9----|-----------------4----------|
----------------------------|----------------------------|
--7-------------------------|--2-------------------------|


----------------------------|--------------2-------------|
--------------------0-------|-----------2-----2----------|
-----------2-----0-----0----|--------4-----------4-------|
--------4-------------------|-----4-----------------4----|
-----4----------------------|----------------------------|
--2-----------0-------------|--2-------------------------|


--------------2-------------|----------------------------|
-----------2----------------|-----------4-----------4----|
--------3-------------------|--------4-----4-----4-------|
-----4----------------------|-----4-----------4----------|
----------------------------|--2-------------------------|
--2-------------------------|----------------------------|


----------------------------|----------------------------|
-----------4-----------4----|-----------3-----------3----|
--------4-----4-----4-------|--------4-----4-----4-------|
-----4-----------4----------|-----4-----------4----------|
--2-------------------------|--2-------------------------|
----------------------------|----------------------------|


----------------------------|-----------0----------------|
-----------3-----------3----|--------3-----3-----3-------|
--------4-----4-----4-------|-----2-----------2-----2----|
-----4-----------4----------|--0-------------------------|
--2-------------------------|----------------------------|
----------------------------|----------------------------|


-----------0----------------|--------------0-------------|
--------3-----3-----3-------|-----------0-----0----------|
-----2-----------2-----2----|--------1-----------1-------|
--0-------------------------|-----2-----------------2----|
----------------------------|----------------------------|
----------------------------|--0-------------------------|


--------------0-------------|--4----||
-----------0-----0----------|--0----||
--------1-----------1-------|--1----||
-----2-----------------2----|--2----||
----------------------------|-------||
--0-------------------------|--0----||



Legend
L - tied note
x - dead note
h - hammer on/pull off
b - bend
s - slide
~ - vibrato
g - ghost note
> - accentuated note
t - trill
M - palm mute
. - staccato
P - popping (bass)
S - slapping (bass)
+ - tapping
W - wide vibrato
< - fade in
w - whammy bar
= - tremolo picking
v - brush up
^ - brush down
V - pick stroke up
n - pick stroke down

Login or Register to remove this ad.

1 comment on Sending A Dream Into The Universe (Duet)

Nice! Saving for duet draft

5

Nice! Saving for duet draft recording.