Ads

Sending a Dream into the Universe (Final Fantasy VII) Guitar Tab

Submitted: Apr 07, 2016 by Colin_spade (Last updated: Apr 07, 2016)

5
Average: 5 (3 votes)
Download | Listen
Game: Final Fantasy VII
Composer(s): Nobuo Uematsu
Style: Arrangement, Fingerstyle
Series: Final Fantasy

This song is also called 宇宙への夢

AutoScroll: Slow | Medium | Fast
Sending a Dream into the Universe    
Final Fantasy VII
Composed by Nobuo Uematsu
Tabbed by Colin_spade



Track 1 (Capo 3)
Tempo = 92bpm
Drop D tuning



     H        H           H        H           H        H         
E||-----------0--------|-----------0--------|-----------0--------|
B||--------------------|--0-----------------|--1-----------------|
G||--2-----------------|--0-----------------|--2-----------------|
D||--2-----------------|--0-----------------|--3-----------------|
A||--3-----------------|--------------------|--------------------|
D||--------------------|--------------------|--------------------|


  H        H           H        H           H        H         
-----------0--------|-----------0--------|-----------3--------|
--0-----------------|--1-----------------|--0-----------------|
--0-----------------|--0-----------------|--0-----------------|
--0-----------------|--2-----------------|--------------------|
--------------------|--------------------|--------------------|
--------------------|--------------------|--------------------|


  H        Q    Q       H        H             H        Q    Q     
--1------------------|--0-----------------||------------0---------|
-----------1----3----|--------------------||-----------------3----|
--2------------------|--1-----------------||*--2------------------|
--3--------3---------|--2-----------------||*--2------------------|
-----------5---------|--------------------||---3-------------2----|
---------------------|--------------------||----------------------|


  H        Q    Q       Q.     E  Q    Q       Q.     E  E  E  E  E   
--0--------0----2----|--3------0------------|------------------------|
---------------------|------------0---------|--L---------------------|
--0------------------|----------------------|------------------------|
--2------------------|--2-------------------|--2---------------2-----|
--3------------------|--2--------------2----|---------2--L--2-----0--|
---------------------|--2-------------------|------------------------|


  H        Q    Q       H        Q    Q       Q.     E  Q    Q     
-----------2----0----|--2--------2----4----|--5------2------------|
--0------------------|---------------------|------------2---------|
---------------------|--2------------------|----------------------|
--4------------------|--4------------------|--4-------------------|
--5-------------4----|--5------------------|--4--------------4----|
---------------------|---------------------|--4-------------------|


  Q.     E  E  E  E  E     Q.     E  Q    E  E     H        Q    Q     
------------------------|-----------------------|---------------------|
--L---------------------|--------------------0--|-----------0----3----|
------------------------|---------1--2----------|--5------------------|
------------------2-----|--0--------------0-----|---------------------|
---------------4--------|--0--------------------|--0------------------|
--4------4--L--------2--|--0-----------------2--|--3-------------5----|


  Q.     E  Q    Q       H        Q    Q       Q.     E  Q    E  E   
----------------------|---------------------|-----------------------|
--1-------------------|---------------------|--0--------------------|
---------2------------|---------------------|---------0-------------|
--2---------2---------|--L------------------|--2---------2----------|
--3-------------------|--0------------------|--2--------------------|
-----------------2----|-----------5----3----|--2-----------------2--|


  H        Q    Q       H.           Q       H        H         
----------------1----|--0-----------------|--------------------|
-----------3---------|--------------------|--------------------|
-----------2---------|--2-----------------|--1-----------------|
--L--------3---------|--------------------|--0-----------------|
----------------0----|---------------2----|--------------------|
--2------------------|--2-----------------|-----------2--------|


  H        H           H        Q    E  E     H        H         
--------------------|----------------------|--------------------|
--------------------|--2--------2----------|--1--------1--------|
--L-----------------|--2--------2----------|--2--------2--------|
--2--------2--------|--2--------2----------|--2--------2--------|
--4--------4--------|----------------------|--0-----------------|
--------------------|-------------------2--|--------------------|


  H        Q    E  E     H        H           H        E  E  E  E   
----------------------|--3--------3--------|--3--------3-----------|
--1--------1----------|--------------------|-----------------------|
--2--------2----------|--5--------5--------|--5--------5-----------|
--2--------2----------|--------------------|--------------------2--|
----------------0--2--|--3-----------------|-----------3--2--3-----|
----------------------|--------------------|-----------------------|


  H        H           H        H           
--2--------2--------|--2--------2---------||
--3--------3--------|--3--------3---------||
--2--------2--------|--2--------2--------*||
--0-----------------|--------------------*||
--------------------|---------------------||
--------------------|--2------------------||




Duration Legend
---------------
W - whole
H - half
Q - quarter
E - 8th
S - 16th
T - 32nd
X - 64th
. - note dotted
|-n-|  - n-tuplets


Tablature Legend
----------------
L - tied note
x - dead note
g - grace note
(n) - ghost note
> - accentuded note
NH - natural harmonic
AH - artificial harmonic
TH - tapped harmonic
SH - semi harmonic
PH - pitch harmonic
h - hammer on
p - pull off
b - bend
br - bendRelease
pb - preBend
pbr - preBendRelease
brb - bendReleaseBend
\n/ - tremolo bar dip
\n - tremolo bar dive
-/n - tremolo bar Release up
/n\ - tremolo bar inverted dip
/n - tremolo bar return
-\n - tremolo bar Release down
S - shift slide
s - legato slide
/ -  slide into from below or out of upwards
\ -  slide into from above or out of downwards
~ - vibrato
W - wide vibrato
tr - trill
TP - tremolo picking
T - tapping
S - slap
P - pop
< - fade in
^ - brush up
v - brush down
Login or Register to remove this ad.

2 comments on Sending a Dream into the Universe

CORIN SPADO!!!! Welcome back!

CORIN SPADO!!!!

Welcome back! Great to see another tab from ya.

Thank you c: it's been a long

Thank you c: it's been a long time since I've posted xD hope I haven't lost my touch lol