A Secret Sleeping in the Deep Sea (Final Fantasy VII) Bass/Guitar Tab

Submitted: Nov 26, 2013 by hashel

0
Download | Listen
Game: Final Fantasy VII
Composer(s): Nobuo Uematsu
Style: 2 or more instruments, Arrangement, Transcription
Series: Final Fantasy

Click here for a video example.

AutoScroll: Slow | Medium | Fast
Hello ! This is my version of this song, if you want the bass line, solo or the arpeggios i added, please downlaod the GP5 file :)

Title: A Secret Sleeping in the Deep Sea
Artist: Nobuo Uematsu
Album: FF7 OST
Music: Nobuo Uematsu
Copyright: Square-Enix
Tabber: Hashel05
Tempo = 75

Melodies are 1 octave up in the original

Melody A

E |-------|-------|-------|-------|-------|-------|-------|-------|-------|
B |-------|-------|-------|-------|-------|-------|-------|-------|-------|
G |-------|-------|-------|-------|-------|-------|-------|-------|-------|
D |-------|-------|-------|-------|-------|-------|-------|-------|-------|
A |-------|-------|-------|-------|-------|-------|-------|-------|-------|
E |-------|-------|-------|-------|-------|-------|-------|-------|-------|


----------------------------|----------------------------|-------|----------|
--------8--9--11------------|--------8--9--11-9--8-------|-------|----------|
----------------------------|-----------------------8----|--10L--|--10------|
----------------------------|----------------------------|-------|----------|
----------------------------|----------------------------|-------|----------|
----------------------------|----------------------------|-------|----------|


----------------------------|--------------------15------|--10L--|--10------|
--------8--9--11------------|--------8--9--11------------|-------|----------|
----------------------------|----------------------------|-------|----------|
----------------------------|----------------------------|-------|----------|
----------------------------|----------------------------|-------|----------|
----------------------------|----------------------------|-------|----------|


-------|-------|-------|-------|-------|-------|-------|-------|
-------|-------|-------|-------|-------|-------|-------|-------|
-------|-------|-------|-------|-------|-------|-------|-------|
-------|-------|-------|-------|-------|-------|-------|-------|
-------|-------|-------|-------|-------|-------|-------|-------|
-------|-------|-------|-------|-------|-------|-------|-------|


--10-11-13-11-10------------|--------10-11-13-11-10------|-------|----------|
----------------------------|-----------------------11---|--13L--|--13------|
----------------------------|----------------------------|-------|----------|
----------------------------|----------------------------|-------|----------|
----------------------------|----------------------------|-------|----------|
----------------------------|----------------------------|-------|----------|


-------|-------|-------|-------|----------------------------|
-------|-------|-------|-------|----------------------------|
-------|-------|-------|-------|--7--8--10-8--7-------------|
-------|-------|-------|-------|----------------------------|
-------|-------|-------|-------|----------------------------|
-------|-------|-------|-------|----------------------------|


----------------------------|-------|----------|----------------------------|
----------------------------|-------|----------|--------8--9--11------------|
--------7--8--10-8--7-------|-------|----------|----------------------------|
-----------------------8----|--10L--|--10------|----------------------------|
----------------------------|-------|----------|----------------------------|
----------------------------|-------|----------|----------------------------|


----------------------------|-------|----------|----------------------------|
--------8--9--11-9--8-------|-------|----------|--------8--9--11------------|
-----------------------8----|--10L--|--10------|----------------------------|
----------------------------|-------|----------|----------------------------|
----------------------------|-------|----------|----------------------------|
----------------------------|-------|----------|----------------------------|


--------------------15------|--10L--|--10------|-------|-------|-------|-------|
--------8--9--11------------|-------|----------|-------|-------|-------|-------|
----------------------------|-------|----------|-------|-------|-------|-------|
----------------------------|-------|----------|-------|-------|-------|-------|
----------------------------|-------|----------|-------|-------|-------|-------|
----------------------------|-------|----------|-------|-------|-------|-------|


-------|-------|-------|-------|----|----|----|----|----|----|----|----|----|
-------|-------|-------|-------|----|----|----|----|----|----|----|----|----|
-------|-------|-------|-------|----|----|----|----|----|----|----|----|----|
-------|-------|-------|-------|----|----|----|----|----|----|----|----|----|
-------|-------|-------|-------|----|----|----|----|----|----|----|----|----|
-------|-------|-------|-------|----|----|----|----|----|----|----|----|----|


----|----|----|----|----|----|----|--10-11-13-11-10------------|
----|----|----|----|----|----|----|----------------------------|
----|----|----|----|----|----|----|----------------------------|
----|----|----|----|----|----|----|----------------------------|
----|----|----|----|----|----|----|----------------------------|
----|----|----|----|----|----|----|----------------------------|


--------10-11-13-11-10------|-------|----------|-------|-------|-------|-------|
-----------------------11---|--13L--|--13------|-------|-------|-------|-------|
----------------------------|-------|----------|-------|-------|-------|-------|
----------------------------|-------|----------|-------|-------|-------|-------|
----------------------------|-------|----------|-------|-------|-------|-------|
----------------------------|-------|----------|-------|-------|-------|-------|


----------------------------|----------------------------|-------|----------|
----------------------------|----------------------------|-------|----------|
--7--8--10-8--7-------------|--------7--8--10-8--7-------|-------|----------|
----------------------------|-----------------------8----|--10L--|--10------|
----------------------------|----------------------------|-------|----------|
----------------------------|----------------------------|-------|----------|


-------|-------|-------|----------------------------------------------------|
-------|-------|-------|----------------------------------------------------|
-------|-------|-------|--------------------------------------------8--11---|
-------|-------|-------|--------------------------------------8--9----------|
-------|-------|-------|----------------------------------------------------|
-------|-------|-------|----------------------------------------------------|


-------|----||
--11---|----||
-------|----||
-------|----||
-------|----||
-------|----||


Melody B


E |-------|-------|-------|-------|-------|-------|-------|-------|-------|
B |-------|-------|-------|-------|-------|-------|-------|-------|-------|
G |-------|-------|-------|-------|-------|-------|-------|-------|-------|
D |-------|-------|-------|-------|-------|-------|-------|-------|-------|
A |-------|-------|-------|-------|-------|-------|-------|-------|-------|
E |-------|-------|-------|-------|-------|-------|-------|-------|-------|


-------|-------|-------|-------|-------|-------|-------|-------|
-------|-------|-------|-------|-------|-------|-------|-------|
-------|-------|-------|-------|-------|-------|-------|-------|
-------|-------|-------|-------|-------|-------|-------|-------|
-------|-------|-------|-------|-------|-------|-------|-------|
-------|-------|-------|-------|-------|-------|-------|-------|


----------------------------|----------------------------|-------|----------|
----------------------------|----------------------------|-------|----------|
----------------------------|----------------------------|-------|----------|
--------5--6--8-------------|--------5--6--8-----5-------|-------|----------|
----------------------------|-----------------------6----|--8L---|--8-------|
----------------------------|----------------------------|-------|----------|


----------------------------|----------------------------|-------|----------|
----------------------------|----------------------------|--6L---|--6-------|
----------------------------|--------------------7-------|-------|----------|
--------5--6--8-------------|--------5--6--8-------------|-------|----------|
----------------------------|----------------------------|-------|----------|
----------------------------|----------------------------|-------|----------|


-------|-------|-------|-------|----------------------------|
-------|-------|-------|-------|----------------------------|
-------|-------|-------|-------|--5--7--8--7--5-------------|
-------|-------|-------|-------|----------------------------|
-------|-------|-------|-------|----------------------------|
-------|-------|-------|-------|----------------------------|


----------------------------|-------|----------|-------|-------|-------|-------|
----------------------------|-------|----------|-------|-------|-------|-------|
--------5--7--8--7--5-------|-------|----------|-------|-------|-------|-------|
-----------------------6----|--8L---|--8-------|-------|-------|-------|-------|
----------------------------|-------|----------|-------|-------|-------|-------|
----------------------------|-------|----------|-------|-------|-------|-------|


-------|-------|-------|-------|-------|-------|-------|-------|
-------|-------|-------|-------|-------|-------|-------|-------|
-------|-------|-------|-------|-------|-------|-------|-------|
-------|-------|-------|-------|-------|-------|-------|-------|
-------|-------|-------|-------|-------|-------|-------|-------|
-------|-------|-------|-------|-------|-------|-------|-------|


----------------------------|----------------------------|-------|----------|
----------------------------|----------------------------|-------|----------|
----------------------------|----------------------------|-------|----------|
--------5--6--8-------------|--------5--6--8-----5-------|-------|----------|
----------------------------|-----------------------6----|--8L---|--8-------|
----------------------------|----------------------------|-------|----------|


----------------------------|----------------------------|-------|----------|
----------------------------|----------------------------|--6L---|--6-------|
----------------------------|--------------------7-------|-------|----------|
--------5--6--8-------------|--------5--6--8-------------|-------|----------|
----------------------------|----------------------------|-------|----------|
----------------------------|----------------------------|-------|----------|


----|----|----|----|----|----|----|----|----|----|----|----|----|----|----|----|
----|----|----|----|----|----|----|----|----|----|----|----|----|----|----|----|
----|----|----|----|----|----|----|----|----|----|----|----|----|----|----|----|
----|----|----|----|----|----|----|----|----|----|----|----|----|----|----|----|
----|----|----|----|----|----|----|----|----|----|----|----|----|----|----|----|
----|----|----|----|----|----|----|----|----|----|----|----|----|----|----|----|


-------|-------|-------|-------|----------------------------|
-------|-------|-------|-------|----------------------------|
-------|-------|-------|-------|--5--7--8--7--5-------------|
-------|-------|-------|-------|----------------------------|
-------|-------|-------|-------|----------------------------|
-------|-------|-------|-------|----------------------------|


----------------------------|-------|----------|-------|-------|-------|-------|
----------------------------|-------|----------|-------|-------|-------|-------|
--------5--7--8--7--5-------|-------|----------|-------|-------|-------|-------|
-----------------------6----|--8L---|--8-------|-------|-------|-------|-------|
----------------------------|-------|----------|-------|-------|-------|-------|
----------------------------|-------|----------|-------|-------|-------|-------|


----------------------------|----------------------------|----------------|
----------------------------|----------------------------|----------------|
--5--6--8--6--5-------------|--------5--6--8--6--5-------|-----7----------|
----------------------------|-----------------------6----|--5--------10---|
----------------------------|----------------------------|--------8-------|
----------------------------|----------------------------|----------------|


----------------|----|----||
----------------|----|----||
----------------|----|----||
-----8----------|----|----||
--6-------------|----|----||
----------------|----|----||


Chords


E |----|----------------------------|----------------------------|
B |----|--9-----9-----9-----9-------|--9-----9-----9-----9-------|
G |----|--10----10----10----10------|--10----10----10----10------|
D |----|--11----11----11----11------|--11----11----11----11------|
A |----|----------------------------|----------------------------|
E |----|----------------------------|----------------------------|


----------------------------|----------------------------|
--8-----8-----8-----8-------|--8-----8-----8-----8-------|
--7-----7-----7-----7-------|--7-----7-----7-----7-------|
--8-----8-----8-----8-------|--8-----8-----8-----8-------|
----------------------------|----------------------------|
----------------------------|----------------------------|


----------------------------|----------------------------|
--9-----9-----9-----9-------|--9-----9-----9-----9-------|
--10----10----10----10------|--10----10----10----10------|
--11----11----11----11------|--11----11----11----11------|
----------------------------|----------------------------|
----------------------------|----------------------------|


----------------------------|----------------------------|
--8-----8-----8-----8-------|--8-----8-----8-----8-------|
--7-----7-----7-----7-------|--7-----7-----7-----7-------|
--8-----8-----8-----8-------|--8-----8-----8-----8-------|
----------------------------|----------------------------|
----------------------------|----------------------------|


----------------------------|----------------------------|
--4-----4-----4-----4-------|--4-----4-----4-----4-------|
--5-----5-----5-----5-------|--5-----5-----5-----5-------|
--6-----6-----6-----6-------|--6-----6-----6-----6-------|
----------------------------|----------------------------|
----------------------------|----------------------------|


----------------------------|----------------------------|
--8-----8-----8-----8-------|--8-----8-----8-----8-------|
--7-----7-----7-----7-------|--7-----7-----7-----7-------|
--8-----8-----8-----8-------|--8-----8-----8-----8-------|
----------------------------|----------------------------|
----------------------------|----------------------------|


----------------------------|----------------------------|
--4-----4-----4-----4-------|--4-----4-----4-----4-------|
--5-----5-----5-----5-------|--5-----5-----5-----5-------|
--6-----6-----6-----6-------|--6-----6-----6-----6-------|
----------------------------|----------------------------|
----------------------------|----------------------------|


----------------------------|----------------------------|
--8-----8-----8-----8-------|--8-----8-----8-----8-------|
--7-----7-----7-----7-------|--7-----7-----7-----7-------|
--8-----8-----8-----8-------|--8-----8-----8-----8-------|
----------------------------|----------------------------|
----------------------------|----------------------------|


----------------------------|----------------------------|
--4-----4-----4-----4-------|--4-----4-----4-----4-------|
--5-----5-----5-----5-------|--5-----5-----5-----5-------|
--6-----6-----6-----6-------|--6-----6-----6-----6-------|
----------------------------|----------------------------|
----------------------------|----------------------------|


----------------------------|----------------------------|
--8-----8-----8-----8-------|--8-----8-----8-----8-------|
--7-----7-----7-----7-------|--7-----7-----7-----7-------|
--8-----8-----8-----8-------|--8-----8-----8-----8-------|
----------------------------|----------------------------|
----------------------------|----------------------------|


----------------------------|----------------------------|
--4-----4-----4-----4-------|--4-----4-----4-----4-------|
--5-----5-----5-----5-------|--5-----5-----5-----5-------|
--6-----6-----6-----6-------|--6-----6-----6-----6-------|
----------------------------|----------------------------|
----------------------------|----------------------------|


----------------------------|----------------------------|
--8-----8-----8-----8-------|--8-----8-----8-----8-------|
--7-----7-----7-----7-------|--7-----7-----7-----7-------|
--8-----8-----8-----8-------|--8-----8-----8-----8-------|
----------------------------|----------------------------|
----------------------------|----------------------------|


----------------------------|----------------------------|
--------3-----3-----3-------|--3-----3-----3-----3-------|
--------3-----3-----3-------|--3-----3-----3-----3-------|
--------5-----5-----5-------|--5-----5-----5-----5-------|
----------------------------|----------------------------|
----------------------------|----------------------------|


----------------------------|----------------------------|
--------9-----9-----9-------|--9-----9-----9-----9-------|
--------8-----8-----8-------|--8-----8-----8-----8-------|
--------8-----8-----8-------|--8-----8-----8-----8-------|
----------------------------|----------------------------|
----------------------------|----------------------------|


----------------------------|----------------------------|
--------4-----4-----4-------|--4-----4-----4-----4-------|
--------3-----3-----3-------|--3-----3-----3-----3-------|
--------5-----5-----5-------|--5-----5-----5-----5-------|
----------------------------|----------------------------|
----------------------------|----------------------------|


----------------------------|----------------------------|
--------8-----8-----8-------|--8-----8-----8-----8-------|
--------7-----7-----7-------|--7-----7-----7-----7-------|
--------8-----8-----8-------|--8-----8-----8-----8-------|
----------------------------|----------------------------|
----------------------------|----------------------------|


----------------------------|----------------------------|
--------3-----3-----3-------|--3-----3-----3-----3-------|
--------3-----3-----3-------|--3-----3-----3-----3-------|
--------5-----5-----5-------|--5-----5-----5-----5-------|
----------------------------|----------------------------|
----------------------------|----------------------------|


----------------------------|----------------------------|
--------5-----5-----5-------|--5-----5-----5-----5-------|
--------5-----5-----5-------|--5-----5-----5-----5-------|
--------7-----7-----7-------|--7-----7-----7-----7-------|
----------------------------|----------------------------|
----------------------------|----------------------------|


----------------------------|----------------------------|
--4-----4-----4-----4-------|--4-----4-----4-----4-------|
--5-----5-----5-----5-------|--5-----5-----5-----5-------|
--6-----6-----6-----6-------|--6-----6-----6-----6-------|
----------------------------|----------------------------|
----------------------------|----------------------------|


----------------------------|----------------------------|
--8-----8-----8-----8-------|--8-----8-----8-----8-------|
--7-----7-----7-----7-------|--7-----7-----7-----7-------|
--8-----8-----8-----8-------|--8-----8-----8-----8-------|
----------------------------|----------------------------|
----------------------------|----------------------------|


----------------------------|----------------------------|
--4-----4-----4-----4-------|--4-----4-----4-----4-------|
--5-----5-----5-----5-------|--5-----5-----5-----5-------|
--6-----6-----6-----6-------|--6-----6-----6-----6-------|
----------------------------|----------------------------|
----------------------------|----------------------------|


----------------------------|----------------------------|
--8-----8-----8-----8-------|--8-----8-----8-----8-------|
--7-----7-----7-----7-------|--7-----7-----7-----7-------|
--8-----8-----8-----8-------|--8-----8-----8-----8-------|
----------------------------|----------------------------|
----------------------------|----------------------------|


----------------------------|----------------------------|
--4-----4-----4-----4-------|--4-----4-----4-----4-------|
--5-----5-----5-----5-------|--5-----5-----5-----5-------|
--6-----6-----6-----6-------|--6-----6-----6-----6-------|
----------------------------|----------------------------|
----------------------------|----------------------------|


----------------------------|----------------------------|
--8-----8-----8-----8-------|--8-----8-----8-----8-------|
--7-----7-----7-----7-------|--7-----7-----7-----7-------|
--8-----8-----8-----8-------|--8-----8-----8-----8-------|
----------------------------|----------------------------|
----------------------------|----------------------------|


----------------------------|----------------------------|
--4-----4-----4-----4-------|--4-----4-----4-----4-------|
--5-----5-----5-----5-------|--5-----5-----5-----5-------|
--6-----6-----6-----6-------|--6-----6-----6-----6-------|
----------------------------|----------------------------|
----------------------------|----------------------------|


----------------------------|----------------------------|-------|-------|
--8-----8-----8-----8-------|--8-----8-----8-----8-------|--9----|--6----|
--7-----7-----7-----7-------|--7-----7-----7-----7-------|--10---|--7----|
--8-----8-----8-----8-------|--8-----8-----8-----8-------|--10---|--6----|
----------------------------|----------------------------|-------|-------|
----------------------------|----------------------------|-------|-------|


-------|-------|-------|-------|-------|-------|-------|-------|-------|-------|
--8----|--6----|--9----|--6----|--6----|--3----|--9----|--6----|--8----|--6----|
--7----|--7----|--10---|--7----|--5----|--1----|--10---|--7----|--7----|--7----|
--8----|--8----|--10---|--6----|--6----|--3----|--10---|--6----|--8----|--8----|
-------|-------|-------|-------|-------|-------|-------|-------|-------|-------|
-------|-------|-------|-------|-------|-------|-------|-------|-------|-------|


-------|-------|-------|-------|----------------------------|
--9----|--6----|--8----|--11---|--------3-----3-----3-------|
--10---|--7----|--7----|--10---|--------3-----3-----3-------|
--10---|--6----|--8----|--12---|--------5-----5-----5-------|
-------|-------|-------|-------|----------------------------|
-------|-------|-------|-------|----------------------------|


----------------------------|----------------------------|
--3-----3-----3-----3-------|--------9-----9-----9-------|
--3-----3-----3-----3-------|--------8-----8-----8-------|
--5-----5-----5-----5-------|--------8-----8-----8-------|
----------------------------|----------------------------|
----------------------------|----------------------------|


----------------------------|----------------------------|
--9-----9-----9-----9-------|--------4-----4-----4-------|
--8-----8-----8-----8-------|--------3-----3-----3-------|
--8-----8-----8-----8-------|--------5-----5-----5-------|
----------------------------|----------------------------|
----------------------------|----------------------------|


----------------------------|----------------------------|
--4-----4-----4-----4-------|--------8-----8-----8-------|
--3-----3-----3-----3-------|--------7-----7-----7-------|
--5-----5-----5-----5-------|--------8-----8-----8-------|
----------------------------|----------------------------|
----------------------------|----------------------------|


----------------------------|----------------------------|
--8-----8-----8-----8-------|--------3-----3-----3-------|
--7-----7-----7-----7-------|--------3-----3-----3-------|
--8-----8-----8-----8-------|--------5-----5-----5-------|
----------------------------|----------------------------|
----------------------------|----------------------------|


----------------------------|----------------------------|
--3-----3-----3-----3-------|--------5-----5-----5-------|
--3-----3-----3-----3-------|--------5-----5-----5-------|
--5-----5-----5-----5-------|--------7-----7-----7-------|
----------------------------|----------------------------|
----------------------------|----------------------------|


----------------------------|----------------------------|
--5-----5-----5-----5-------|--------6-----6-----6-------|
--5-----5-----5-----5-------|--------5-----5-----5-------|
--7-----7-----7-----7-------|--------6-----6-----6-------|
----------------------------|----------------------------|
----------------------------|----------------------------|


----------------------------|----------|-------|-------|----||
--6-----6-----6-----6-------|--3--1L---|--1L---|--1----|----||
--5-----5-----5-----5-------|--3--2----|--3L---|--3----|----||
--6-----6-----6-----6-------|--5L-5L---|--5L---|--5----|----||
----------------------------|----------|-------|-------|----||
----------------------------|----------|-------|-------|----||


Bass



G |-------|--1L---|--1----|--0L---|--0----|--1L---|--1----|--0L---|--0----|
D |-------|-------|-------|-------|-------|-------|-------|-------|-------|
A |-------|-------|-------|-------|-------|-------|-------|-------|-------|
E |-------|-------|-------|-------|-------|-------|-------|-------|-------|


-------|-------|--0L---|--0----|-------|-------|--0L---|--0----|-------|-------|
-------|-------|-------|-------|-------|-------|-------|-------|-------|-------|
--3L---|--3----|-------|-------|--3L---|--3----|-------|-------|--3L---|--3----|
-------|-------|-------|-------|-------|-------|-------|-------|-------|-------|


--0L---|--0----|-------|-------|--0L---|--0----|-------|-------|-------|-------|
-------|-------|-------|-------|-------|-------|-------|-------|-------|-------|
-------|-------|--3L---|--3----|-------|-------|--3L---|--3----|--8L---|--8----|
-------|-------|-------|-------|-------|-------|-------|-------|-------|-------|


-------|-------|-------|-------|-------|-------|-------|-------|-------|-------|
--5L---|--5----|--8L---|--8----|-------|-------|-------|-------|-------|-------|
-------|-------|-------|-------|--3L---|--3----|--13L--|--13---|--3L---|--3----|
-------|-------|-------|-------|-------|-------|-------|-------|-------|-------|


--0L---|--0----|-------|-------|--0L---|--0----|-------|-------|--0L---|--0----|
-------|-------|-------|-------|-------|-------|-------|-------|-------|-------|
-------|-------|--3L---|--3----|-------|-------|--3L---|--3----|-------|-------|
-------|-------|-------|-------|-------|-------|-------|-------|-------|-------|


-------|-------|--0L---|--0----|-------|--3----|-------|-------|-------|--3----|
-------|-------|-------|-------|--3----|-------|-------|-------|--3----|-------|
--3L---|--3----|-------|-------|-------|-------|--6----|--1----|-------|-------|
-------|-------|-------|-------|-------|-------|-------|-------|-------|-------|


--1----|--3----|-------|--3----|-------|-------|-------|--3----|-------|-------|
-------|-------|--3----|-------|-------|-------|--3----|-------|--5----|--8----|
-------|-------|-------|-------|--6----|--1----|-------|-------|-------|-------|
-------|-------|-------|-------|-------|-------|-------|-------|-------|-------|


-------|-------|-------|-------|-------|-------|-------|-------|-------|-------|
-------|-------|-------|-------|--5L---|--5----|--8L---|--8----|-------|-------|
--3L---|--3----|--8L---|--8----|-------|-------|-------|-------|--3L---|--3----|
-------|-------|-------|-------|-------|-------|-------|-------|-------|-------|


-------|-------|-------|-------|
-------|-------|-------|-------|
--13L--|--13---|--1L---|--1----|
-------|-------|-------|-------|


--8L----------8-----------7L----------7-------------|-------|----------------|
----------------------------------------------------|--8L---|--8-------------|
----------------------------------------------------|-------|----------------|
----------------------------------------------------|-------|----------------|


----||
----||
----||
----||


Login or Register to remove this ad.