Ads

Sandy Badlands (Final Fantasy VII) Guitar Tab

Submitted: Aug 26, 2012 by hashel

5
Average: 5 (1 vote)
Download | Listen
Game: Final Fantasy VII
Composer(s): Nobuo Uematsu
Style: 2 or more instruments, Transcription
Series: Final Fantasy

AutoScroll: Slow | Medium | Fast
Title: Sandy Badlands
Artist: Nobuo Uematsu
Album: FFVII OST
Tabber: Hashel05
Tempo = 80
Everything is on 3/4

PLZ DOWNLOAD GP FILE FOR ALL THE TRACKS



Melody
This is played one octave up in the original

E |----|----|----|----|----|----|----|----|----|----|
B |----|----|----|----|----|----|----|----|----|----|
G |----|----|----|----|----|----|----|----|----|----|
D |----|----|----|----|----|----|----|----|----|----|
A |----|----|----|----|----|----|----|----|----|----|
E |----|----|----|----|----|----|----|----|----|----|


--------------------------------18-20---|--22-18---------------|
----------------------------------------|--------20------------|
----------------------------------------|----------------------|
----------------------------------------|----------------------|
----------------------------------------|----------------------|
----------------------------------------|----------------------|


--20-------17---------------------------------------------|-------|
--------------------18-------------------------16h18h16---|--15---|
----------------------------------------------------------|-------|
----------------------------------------------------------|-------|
----------------------------------------------------------|-------|
----------------------------------------------------------|-------|


----------------------------------------|----------------------|
----------------------------------------|----------------------|
--------------------------------15-17---|--19-15---------------|
----------------------------------------|--------17------------|
----------------------------------------|----------------------|
----------------------------------------|----------------------|


----------------------|-------|-------|--22-18---------------|
--------18-------16---|--15---|-------|--------20------------|
--17-14---------------|-------|-------|----------------------|
----------------------|-------|-------|----------------------|
----------------------|-------|-------|----------------------|
----------------------|-------|-------|----------------------|


--20-------17---------------------------------------------|-------|-------|
--------------------18-------------------------16-18-16---|--15---|-------|
----------------------------------------------------------|-------|-------|
----------------------------------------------------------|-------|-------|
----------------------------------------------------------|-------|-------|
----------------------------------------------------------|-------|-------|


----------------------|----------------------------------------|-------|-------|
-----------------20---|--18------------------------------------|-------|-------|
--19-15---------------|--------------17----------------15-14---|--12---|-------|
--------17------------|----------------------------------------|-------|-------|
----------------------|----------------------------------------|-------|-------|
----------------------|----------------------------------------|-------|-------|


-------|-------|-------|--------------------------------18-20---|
-------|-------|-------|----------------------------------------|
-------|-------|-------|----------------------------------------|
-------|-------|-------|----------------------------------------|
-------|-------|-------|----------------------------------------|
-------|-------|-------|----------------------------------------|


--22-18---------------|
--------20------------|
----------------------|
----------------------|
----------------------|
----------------------|


--20-------17---------------------------------------------|-------|
--------------------18-------------------------16h18h16---|--15---|
----------------------------------------------------------|-------|
----------------------------------------------------------|-------|
----------------------------------------------------------|-------|
----------------------------------------------------------|-------|


----------------------------------------|----------------------|
----------------------------------------|----------------------|
--------------------------------15-17---|--19-15---------------|
----------------------------------------|--------17------------|
----------------------------------------|----------------------|
----------------------------------------|----------------------|


----------------------|-------|-------|--22-18---------------|
--------18-------16---|--15---|-------|--------20------------|
--17-14---------------|-------|-------|----------------------|
----------------------|-------|-------|----------------------|
----------------------|-------|-------|----------------------|
----------------------|-------|-------|----------------------|


--20-------17---------------------------------------------|-------|-------|
--------------------18-------------------------16-18-16---|--15---|-------|
----------------------------------------------------------|-------|-------|
----------------------------------------------------------|-------|-------|
----------------------------------------------------------|-------|-------|
----------------------------------------------------------|-------|-------|


----------------------|----------------------------------------|-------|-------|
-----------------20---|--18------------------------------------|-------|-------|
--19-15---------------|--------------17----------------15-14---|--12---|-------|
--------17------------|----------------------------------------|-------|-------|
----------------------|----------------------------------------|-------|-------|
----------------------|----------------------------------------|-------|-------|


-------|-------|-------|-------|--------------22----18------------------|
-------|-------|-------|-------|----------------------------------------|
-------|-------|-------|-------|----------------------------------------|
-------|-------|-------|-------|----------------------------------------|
-------|-------|-------|-------|----------------------------------------|
-------|-------|-------|-------|----------------------------------------|


--------------20----16------------------|
----------------------------------------|
----------------------------------------|
----------------------------------------|
----------------------------------------|
----------------------------------------|


--------------22------------------------|
--------------------20------------------|
----------------------------------------|
----------------------------------------|
----------------------------------------|
----------------------------------------|


--------------20------------------------|-------------|-------|-------------|
--------------------18------------------|--16-18-20---|-------|--13-15-16---|
----------------------------------------|-------------|--19---|-------------|
----------------------------------------|-------------|-------|-------------|
----------------------------------------|-------------|-------|-------------|
----------------------------------------|-------------|-------|-------------|


-------|--22----18------------------|--------------20----16------------------|
-------|----------------------------|----------------------------------------|
--13---|----------------------------|----------------------------------------|
-------|----------------------------|----------------------------------------|
-------|----------------------------|----------------------------------------|
-------|----------------------------|----------------------------------------|


--------------22------------------------|
--------------------20------------------|
----------------------------------------|
----------------------------------------|
----------------------------------------|
----------------------------------------|


--------------20------------------------|-------------|-------|-------------|
--------------------18------------------|--16-18-20---|-------|--13-15-16---|
----------------------------------------|-------------|--19---|-------------|
----------------------------------------|-------------|-------|-------------|
----------------------------------------|-------------|-------|-------------|
----------------------------------------|-------------|-------|-------------|


-------|-------|-------|-------||
-------|-------|-------|-------||
--10---|-------|-------|-------||
-------|-------|-------|-------||
-------|-------|-------|-------||
-------|-------|-------|-------||


Piano

E |----|----|----------------------|-------------|----------------------|
B |----|----|----------------------|-------------|----------------------|
G |----|----|--------7-------------|-----5-------|--------7-------------|
D |----|----|--5-------------------|-------------|--5-------------------|
A |----|----|-----------------5----|--8----------|-----------------5----|
E |----|----|----------------------|-------------|----------------------|


-------------|----------------------|-------------|----------------------|
-------------|----------------------|-------------|----------------------|
-----5-------|--------7-------------|-----5-------|--------7-------------|
--6----------|--5-------------------|-------------|--5-------------------|
-------------|-----------------5----|--8----------|-----------------5----|
-------------|----------------------|-------------|----------------------|


-------------|-------|----------------------|-------------|
-------------|-------|----------------------|-------------|
-----8-------|-------|--------7-------------|-----5-------|
--6----------|-------|--5-------------------|-------------|
-------------|-------|-----------------5----|--8----------|
-------------|-------|----------------------|-------------|


----------------------|-------------|----------------------|-------------|
----------------------|-------------|----------------------|-------------|
--------7-------------|-----5-------|--------7-------------|-----5-------|
--5-------------------|-------------|--5-------------------|-------------|
-----------------5----|--8----------|-----------------5----|--8----------|
----------------------|-------------|----------------------|-------------|


----------------------|-------------|----------------------|-------------|
----------------------|-------------|----------------------|-------------|
--------7-------------|-----5-------|--------7-------------|-----5-------|
--5-------------------|-------------|--5-------------------|-------------|
-----------------5----|--8----------|-----------------5----|--8----------|
----------------------|-------------|----------------------|-------------|


----------------------|-------------|----------------------|-------------|
----------------------|-------------|----------------------|-------------|
--------7-------------|-----5-------|--------7-------------|-----5-------|
--5-------------------|-------------|--5-------------------|--6----------|
-----------------5----|--8----------|-----------------5----|-------------|
----------------------|-------------|----------------------|-------------|


----------------------|-------------|----------------------|-------------|
----------------------|-------------|----------------------|-------------|
--------7-------------|-----5-------|--------7-------------|-----8-------|
--5-------------------|-------------|--5-------------------|--6----------|
-----------------5----|--8----------|-----------------5----|-------------|
----------------------|-------------|----------------------|-------------|


-------|-------|----------------------|-------------|----------------------|
-------|-------|----------------------|-------------|----------------------|
-------|-------|--------7-------------|-----5-------|--------7-------------|
-------|-------|--5-------------------|-------------|--5-------------------|
-------|-------|-----------------5----|--8----------|-----------------5----|
-------|-------|----------------------|-------------|----------------------|


-------------|----------------------|-------------|----------------------|
-------------|----------------------|-------------|----------------------|
-----5-------|--------7-------------|-----5-------|--------7-------------|
-------------|--5-------------------|-------------|--5-------------------|
--8----------|-----------------5----|--8----------|-----------------5----|
-------------|----------------------|-------------|----------------------|


-------------|----------------------|-------------|----------------------|
-------------|----------------------|-------------|----------------------|
-----5-------|--------7-------------|-----5-------|--------7-------------|
-------------|--5-------------------|-------------|--5-------------------|
--8----------|-----------------5----|--8----------|-----------------5----|
-------------|----------------------|-------------|----------------------|


-------------|----------------------|-------------|----------------------|
-------------|----------------------|-------------|----------------------|
-----5-------|--------7-------------|-----5-------|--------7-------------|
-------------|--5-------------------|--6----------|--5-------------------|
--8----------|-----------------5----|-------------|-----------------5----|
-------------|----------------------|-------------|----------------------|


-------------|----------------------|-------------|-------|-------|
-------------|----------------------|-------------|-------|-------|
-----5-------|--------7-------------|-----8-------|-------|-------|
-------------|--5-------------------|--6----------|-------|-------|
--8----------|-----------------5----|-------------|-------|-------|
-------------|----------------------|-------------|-------|-------|


----------------------|-------------|----------------------|-------------|
----------------------|-------------|----------------------|-------------|
--------7-------------|-----5-------|--------7-------------|-----5-------|
--5-------------------|-------------|--5-------------------|-------------|
-----------------5----|--8----------|-----------------5----|--8----------|
----------------------|-------------|----------------------|-------------|


----------------------|-------------|----------------------|-------------|
----------------------|-------------|----------------------|-------------|
--------7-------------|-----5-------|--------7-------------|-----5-------|
--5-------------------|-------------|--5-------------------|-------------|
-----------------5----|--8----------|-----------------5----|--8----------|
----------------------|-------------|----------------------|-------------|


----------------------|-------------|----------------------|-------------|
----------------------|-------------|----------------------|-------------|
--------7-------------|-----5-------|--------7-------------|-----5-------|
--5-------------------|-------------|--5-------------------|-------------|
-----------------5----|--8----------|-----------------5----|--8----------|
----------------------|-------------|----------------------|-------------|


-------------|----------------------|-------------|-------------|-------------|
-------------|----------------------|-------------|-------------|-------------|
-----5-------|--------7-------------|-----5-------|-----5-------|-----5-------|
-------------|--5-------------------|-------------|--3----------|--3----------|
--8----------|-----------------5----|--8----------|-------------|-------------|
-------------|----------------------|-------------|-------------|-------------|


-------------|----||
-------------|----||
-----5-------|----||
--3----------|----||
-------------|----||
-------------|----||


Steel Guitar

E |----|----|----|----|----|----|----|----|----|----|----|
B |----|----|----|----|----|----|----|----|----|----|----|
G |----|----|----|----|----|----|----|----|----|----|----|
D |----|----|----|----|----|----|----|----|----|----|----|
A |----|----|----|----|----|----|----|----|----|----|----|
E |----|----|----|----|----|----|----|----|----|----|----|


-----------3L-3-------|-----------1L-1-------|-----------3L-3-------|
--------3L-3L-3-------|--------1L-1L-1-------|--------3L-3L-3-------|
-----3L-3L-3L-3-------|-----2L-2L-2L-2-------|-----3L-3L-3L-3-------|
--5L-5L-5L-5L-5-------|--0L-0L-0L-0L-0-------|--5L-5L-5L-5L-5-------|
----------------------|----------------------|----------------------|
----------------------|----------------------|----------------------|


-----------1L-1-------|-----------3L-3-------|-----------1L-1-------|
--------1L-1L-1-------|--------3L-3L-3-------|--------1L-1L-1-------|
-----2L-2L-2L-2-------|-----3L-3L-3L-3-------|-----2L-2L-2L-2-------|
--0L-0L-0L-0L-0-------|--5L-5L-5L-5L-5-------|--0L-0L-0L-0L-0-------|
----------------------|----------------------|----------------------|
----------------------|----------------------|----------------------|


-----------3L-3-------|-----------1L-1-------|-----------3L-3-------|
--------3L-3L-3-------|--------1L-1L-1-------|--------3L-3L-3-------|
-----3L-3L-3L-3-------|-----2L-2L-2L-2-------|-----3L-3L-3L-3-------|
--5L-5L-5L-5L-5-------|--0L-0L-0L-0L-0-------|--5L-5L-5L-5L-5-------|
----------------------|----------------------|----------------------|
----------------------|----------------------|----------------------|


-----------1L-1-------|-----------3L-3-------|-----------1L-1-------|
--------1L-1L-1-------|--------3L-3L-3-------|--------1L-1L-1-------|
-----2L-2L-2L-2-------|-----3L-3L-3L-3-------|-----2L-2L-2L-2-------|
--0L-0L-0L-0L-0-------|--5L-5L-5L-5L-5-------|--0L-0L-0L-0L-0-------|
----------------------|----------------------|----------------------|
----------------------|----------------------|----------------------|


----------------------|-----------1L-1-------|-----------3L-3-------|
-----------4L-4-------|--------1L-1L-1-------|--------3L-3L-3-------|
--------3L-3L-3-------|-----2L-2L-2L-2-------|-----3L-3L-3L-3-------|
-----5L-5L-5L-5-------|--0L-0L-0L-0L-0-------|--5L-5L-5L-5L-5-------|
--3L-3L-3L-3L-3-------|----------------------|----------------------|
----------------------|----------------------|----------------------|


-----------1L-1-------|-----------3L-3-------|-----------1L-1-------|----|----|
--------1L-1L-1-------|--------3L-3L-3-------|--------1L-1L-1-------|----|----|
-----2L-2L-2L-2-------|-----3L-3L-3L-3-------|-----2L-2L-2L-2-------|----|----|
--0L-0L-0L-0L-0-------|--5L-5L-5L-5L-5-------|--0L-0L-0L-0L-0-------|----|----|
----------------------|----------------------|----------------------|----|----|
----------------------|----------------------|----------------------|----|----|


-----------3L-3-------|-----------1L-1-------|-----------3L-3-------|
--------3L-3L-3-------|--------1L-1L-1-------|--------3L-3L-3-------|
-----3L-3L-3L-3-------|-----2L-2L-2L-2-------|-----3L-3L-3L-3-------|
--5L-5L-5L-5L-5-------|--0L-0L-0L-0L-0-------|--5L-5L-5L-5L-5-------|
----------------------|----------------------|----------------------|
----------------------|----------------------|----------------------|


-----------1L-1-------|-----------3L-3-------|-----------1L-1-------|
--------1L-1L-1-------|--------3L-3L-3-------|--------1L-1L-1-------|
-----2L-2L-2L-2-------|-----3L-3L-3L-3-------|-----2L-2L-2L-2-------|
--0L-0L-0L-0L-0-------|--5L-5L-5L-5L-5-------|--0L-0L-0L-0L-0-------|
----------------------|----------------------|----------------------|
----------------------|----------------------|----------------------|


-----------3L-3-------|-----------1L-1-------|-----------3L-3-------|
--------3L-3L-3-------|--------1L-1L-1-------|--------3L-3L-3-------|
-----3L-3L-3L-3-------|-----2L-2L-2L-2-------|-----3L-3L-3L-3-------|
--5L-5L-5L-5L-5-------|--0L-0L-0L-0L-0-------|--5L-5L-5L-5L-5-------|
----------------------|----------------------|----------------------|
----------------------|----------------------|----------------------|


-----------1L-1-------|-----------3L-3-------|-----------1L-1-------|
--------1L-1L-1-------|--------3L-3L-3-------|--------1L-1L-1-------|
-----2L-2L-2L-2-------|-----3L-3L-3L-3-------|-----2L-2L-2L-2-------|
--0L-0L-0L-0L-0-------|--5L-5L-5L-5L-5-------|--0L-0L-0L-0L-0-------|
----------------------|----------------------|----------------------|
----------------------|----------------------|----------------------|


----------------------|-----------1L-1-------|-----------3L-3-------|
-----------4L-4-------|--------1L-1L-1-------|--------3L-3L-3-------|
--------3L-3L-3-------|-----2L-2L-2L-2-------|-----3L-3L-3L-3-------|
-----5L-5L-5L-5-------|--0L-0L-0L-0L-0-------|--5L-5L-5L-5L-5-------|
--3L-3L-3L-3L-3-------|----------------------|----------------------|
----------------------|----------------------|----------------------|


-----------1L-1-------|-----------3L-3-------|-----------1L-1-------|----|----|
--------1L-1L-1-------|--------3L-3L-3-------|--------1L-1L-1-------|----|----|
-----2L-2L-2L-2-------|-----3L-3L-3L-3-------|-----2L-2L-2L-2-------|----|----|
--0L-0L-0L-0L-0-------|--5L-5L-5L-5L-5-------|--0L-0L-0L-0L-0-------|----|----|
----------------------|----------------------|----------------------|----|----|
----------------------|----------------------|----------------------|----|----|


----|----|----|----|----|----|----|----|----|----|----|----|----|----|----|----|
----|----|----|----|----|----|----|----|----|----|----|----|----|----|----|----|
----|----|----|----|----|----|----|----|----|----|----|----|----|----|----|----|
----|----|----|----|----|----|----|----|----|----|----|----|----|----|----|----|
----|----|----|----|----|----|----|----|----|----|----|----|----|----|----|----|
----|----|----|----|----|----|----|----|----|----|----|----|----|----|----|----|


----|----|----||
----|----|----||
----|----|----||
----|----|----||
----|----|----||
----|----|----||
Login or Register to remove this ad.