Ads

Rufus' Welcoming Ceremony (Final Fantasy VII) Guitar Tab

Submitted: Dec 16, 2016 by Colin_spade

5
Average: 5 (8 votes)
Download | Listen
Game: Final Fantasy VII
Composer(s): Nobuo Uematsu
Style: Arrangement, Fingerstyle
Series: Final Fantasy

AutoScroll: Slow | Medium | Fast
 Rufus' Welcoming Ceremony                             


                                                                  Nobuo Uematsu 
Track 1

Arr By Colin_spade
Bpm 124


     Q.     S S E  E  E  E     Q    Q    Q    Q       Q.     S S E  E  E  E   
E||--0------0-0-0--1--2--3--|--4----0--------------|-------------------------|
B||-------------------------|----------------------|-------------------0--2--|
G||-------------------------|----------------------|--1------1-1-1--2--------|
D||-------------2--1--0-----|----------------------|-------------------------|
A||----------------------4--|--2-------------------|-------------------------|
E||--0----------------------|-------4----0----0----|--0----------4--3--2--0--|


                 |--3--|                                                     
  Q    Q    Q    E  E  E     Q    E.  S E  E  Q       Q    E.  S E  E  Q     
--------------------------|------------------------|------------------------|
--3----0---------------0--|--3----3---2-3--0-------|--3----3---2-3--0-------|
--------------------1-----|------------------------|--0---------------------|
--0--------------2--------|--2----3-----4--4-------|-------3-----2--2-------|
-------2------------------|-------0-----2--2-------|--2----0----------------|
------------0----0--------|--4---------------------|-------------4--4-------|


  ^      ^ v ^      ^ v    ^                                               
  Q.     S S Q.     S S    H.           E.  S      Q    E.  S E  E  E  E   
--0------0-0-0------0-0-|--0------------0-----||--------------------------|
--0------0-0-1------1-1-|--0----------------3-||---2----2---0-2--3--2--0--|
--1------1-1-2------2-2-|--1------------------||*--2----------1-----------|
--2----------2----------|--2------------------||*--2----------2-----------|
--2----------0----------|--2------------------||---0----------------2-----|
--0---------------------|--0------------------||--------0-----0-----------|


                                                   ^                      
  Q    Q    E  E  E  E     Q    E.  S Q    Q       Q    Q    E  E  E  E   
---------------------0--|--2---------------2----|--0------------------0--|
------------------2-----|--3----3---2-0---------|--2---------------2-----|
--2------------2--------|-------------1---------|--2------------2--------|
--2---------------------|--0----------2---------|--2---------------------|
--0---------0-----------|-------0----------2----|--0---------0-----------|
-------0----------0-----|-------------0---------|-------0----------0-----|


                          ^         ^                                     
  Q    E.  S Q    Q       Q    Q    Q    E  E     Q    E.  S E  E  E  E   
--2---------------2----|--0--------------0--5--|--4----4-----4--5--4--2--|
--3----3---2-0---------|--2---------2----------|-----------7-------------|
-------------1---------|--2---------2----------|-------------------------|
--0----------2---------|------------4----------|-------6-----------6-----|
-------0----------2----|--0--------------------|--4----------6-----------|
-------------0---------|-------0----2----0-----|-------------------------|


  Q    Q    Q    E.  S    Q    E.  S E  E  E  E     Q    Q    E  E  E  E   
--0--------------0-----|-------------------------|---------------------0--|
---------------------3-|--2----2---0-2--3--2--0--|------------------2-----|
-----------------4-----|--2----------1-----------|--2------------2--------|
-------6----2----------|--2----------2-----------|--2---------------------|
--4--------------2-----|--0----------------2-----|--0---------0-----------|
------------0----------|-------0-----0-----------|-------0----------0-----|


                          ^                                   ^          
  Q    E.  S Q    Q       Q    Q    E  E  E  E     Q    E.  S Q    Q     
--2---------------2----|--0------------------0--|--2---------------4----|
--3----3---2-0---------|--2---------------2-----|--3----3---2-0---------|
-------------1---------|--2------------2--------|-------------1---------|
--0----------2---------|--2---------------------|--0----------2---------|
-------0----------2----|--0---------0-----------|-------0----------2----|
-------------0---------|-------0----------0-----|-------------0---------|


  ^         ^              ^           ^              ^                   
  Q    Q    E  E  E  E     E  E  E  E  E  E  E  E     H        Q    Q     
--0---------------------|--------------------------|---------------------|
--2---------2--------2--|--3--0-----3--2--------2--|--0------------------|
--2---------2--2--4-----|--4-----------2--2--------|--1--------2---------|
------------4-----------|--------------------------|--2--------2---------|
--0---------------4-----|--2-----------0-----------|-----------0---------|
-------0----2-----------|--------2-----------0-----|--0------------------|


  E  E  Q    E  E  Q       H        E  E  Q       Q    E.  S E  E  E  E   
------------------------|----------------------|-------------------------|
------------------------|----------------------|-------------------------|
------------------------|----------------------|--2----2---2-2--1-----1--|
------------------------|----------------------|--4----------------4-----|
--0--0-------0--0-------|--0--------0--0-------|-------------------0--2--|
------------------------|----------------------|--2----2---0-2--4--------|


                            ^                                                  
                                                                     |--3--|   
  Q    E.  S E  E  E  E     Q    E.  S E  E  E  E     Q    Q    Q    E  E  E   
--1----------------------|-------------------------|--------------------------|
-------2-----------------|--2----2---2-2--0-----2--|--0--------------------0--|
-------------------------|--2----------------2-----|-------1------------1-----|
-----------0-------------|-------------------------|-----------------2--------|
--4----4-----4--2--0-----|--0----------4-----0--2--|-----------------5--------|
----------------------4--|-------0--------0--------|--4----2----0-------------|


  ^                                                 ^      ^ v ^      ^ v  
  Q    E.  S E  E  Q       Q    E.  S E  E  Q       Q.     S S Q.     S S  
------------------------|------------------------|--0------0-0-0------0-0-|
--3----3---2-3--0-------|--3----3---2-3--0-------|--0------0-0-1------1-1-|
--1----2-----4----------|--4----2-----1----------|--1------1-1-2------2-2-|
--2---------------------|------------------------|--2----------2----------|
------------------------|------------------------|--2----------0----------|
--0----1-----2----------|--3----1-----0----------|--0---------------------|


  ^                        ^                   
  H.           E  S S      H.           Q      
--0------------0-------||--0-----------------||
--0-----------------3--||--0-----------------||
--1-------------------*||--1-----------------||
--2-------------------*||--2-----------------||
--2--------------------||--2-----------------||
--0--------------------||--0-----------------||




Duration Legend
---------------
W - whole
H - half
Q - quarter
E - 8th
S - 16th
T - 32nd
X - 64th
. - note dotted
|-n-|  - n-tuplets


Tablature Legend
----------------
L - tied note
x - dead note
g - grace note
(n) - ghost note
> - accentuded note
NH - natural harmonic
AH - artificial harmonic
TH - tapped harmonic
SH - semi harmonic
PH - pitch harmonic
h - hammer on
p - pull off
b - bend
br - bendRelease
pb - preBend
pbr - preBendRelease
brb - bendReleaseBend
\n/ - tremolo bar dip
\n - tremolo bar dive
-/n - tremolo bar Release up
/n\ - tremolo bar inverted dip
/n - tremolo bar return
-\n - tremolo bar Release down
S - shift slide
s - legato slide
/ -  slide into from below or out of upwards
\ -  slide into from above or out of downwards
~ - vibrato
W - wide vibrato
tr - trill
TP - tremolo picking
T - tapping
S - slap
P - pop
< - fade in
^ - brush up
v - brush down
Login or Register to remove this ad.

2 comments on Rufus' Welcoming Ceremony

Excellent work sir, a few

Excellent work sir, a few notes can be played different but 99% accurate so full marks. :)

Thank you kindly :)

Thank you kindly :)