Ads

Rufus' Welcoming Ceremony (Final Fantasy VII) Guitar Tab

Submitted: May 19, 2009 by Shadow2

5
Average: 5 (2 votes)
Download | Listen
Game: Final Fantasy VII
Composer(s): Nobuo Uematsu
Style: Transcription
Series: Final Fantasy

AutoScroll: Slow | Medium | Fast
Rufus' Welcoming Ceremony
Final Fantasy VII
Composed by Nobuo Uematsu
Tabbed by Maxim Panin
5/17/2009

                              Rufus' Welcoming Ceremony                                     


Trumpet
     H           Q    S. T T T T T S S S S S S S S    S E.  S H        E.   
E||-----------|--0---------0---0---0---1---2---3---|--4-----0--------------|
B||-----------|------------------------------------|-----------------------|
G||-----------|------------------------------------|-----------------------|
D||-----------|------------------------------------|-----------------------|
A||-----------|------------------------------------|-----------------------|
E||-----------|------------------------------------|-----------------------|


  Q    S. T T T T T S S S S S S S S     S E.  S Q.     S T. X T T. X T T. X T  
--4---------4---4---4---5---7---9---|--10-----7------------------------7------|
------------------------------------|---------------------------9-------------|
------------------------------------|--------------------9--------------------|
------------------------------------|-----------------------------------------|
------------------------------------|-----------------------------------------|
------------------------------------|-----------------------------------------|


   E.  T T  E  T T S  S S S Q    S     E.  T T  E  T T S  S S S Q    S  
--10-------10------9-10---7--------|--10-------10------9-10---7--------|
-----------------------------------|-----------------------------------|
-----------------------------------|-----------------------------------|
-----------------------------------|-----------------------------------|
-----------------------------------|-----------------------------------|
-----------------------------------|-----------------------------------|


   Q    S. T  T T  T T  Q    S. T  T T  T T     H        E  E   E  T T  S  
--12---------12---12---12---------12---12---|--12--------------12------10-|
--------------------------------------------|-----------------------------|
--------------------------------------------|-----------------------------|
--------------------------------------------|-----------------------------|
--------------------------------------------|-----------------------------|
--------------------------------------------|-----------------------------|


  E.  T T E  T T S S S  S S S S S S    H        E  S S S S  S S  
--9-------9------7-9---10---9---7---|--5-----------5---9---12---|
------------------------------------|---------------------------|
------------------------------------|---------------------------|
------------------------------------|---------------------------|
------------------------------------|---------------------------|
------------------------------------|---------------------------|


   E.  T T  E  T T  S  E.  T T  E.  T T     H        E   S S  S S  S S  
--14---------------------------14-------|--12---------------------12---|
-----------15------14-12----------------|--------------------14--------|
----------------------------------------|---------------14-------------|
----------------------------------------|------------------------------|
----------------------------------------|------------------------------|
----------------------------------------|------------------------------|


   E.  T T  E  T T  S  E.  T T  E.  T T     H         E.  T T  S S  S S  
--14---------------------------16-------|--12-----------------12---17---|
-----------15------14-12----------------|------------14-----------------|
----------------------------------------|-------------------------------|
----------------------------------------|-------------------------------|
----------------------------------------|-------------------------------|
----------------------------------------|-------------------------------|


   E.  T T  E  T T  S  S S  S S  S S  S S     H        E  E   E  T T  S  
--16-------16------14-16---17---16---14---|--12--------------12------10-|
------------------------------------------|-----------------------------|
------------------------------------------|-----------------------------|
------------------------------------------|-----------------------------|
------------------------------------------|-----------------------------|
------------------------------------------|-----------------------------|


  Q    E  T T S S S  S S S S S S    H        E  S S S S  S S  
--9----9------7-9---10---9---7---|--5-----------5---9---12---|
---------------------------------|---------------------------|
---------------------------------|---------------------------|
---------------------------------|---------------------------|
---------------------------------|---------------------------|
---------------------------------|---------------------------|


   E.  T T  E  T T  S  E.  T T  E.  T T     H        E   S S  S S  S S  
--14---------------------------14-------|--12---------------------12---|
-----------15------14-12----------------|--------------------14--------|
----------------------------------------|---------------14-------------|
----------------------------------------|------------------------------|
----------------------------------------|------------------------------|
----------------------------------------|------------------------------|


   E.  T T  E  T T  S  E.  T T  E.  T T     H         S S  S S  S S  S S  
--14---------------------------16-------|--12----------------------------|
-----------15------14-12----------------|------------14--------12---14---|
----------------------------------------|-----------------14-------------|
----------------------------------------|--------------------------------|
----------------------------------------|--------------------------------|
----------------------------------------|--------------------------------|


   S S  Q     S S  S S  Q     S S     H         E  Q.        W                 
----------------------------------|-----------------------|-------------------|
--15---------15---14---------14---|--12-------------------|-------------------|
-------16--------------14---------|------------14---------|-------------------|
----------------------------------|-----------------------|-------------------|
----------------------------------|-----------------------|-------------------|
----------------------------------|-----------------------|-------------------|


  W                   E.  T T E.  T T S S S S S S S S    S E.  S H        E.   
-------------------|--5-------5---5---5---4---2---4---|--1--------------------|
-------------------|----------------------------------|--------2--------------|
-------------------|----------------------------------|-----------------------|
-------------------|----------------------------------|-----------------------|
-------------------|----------------------------------|-----------------------|
-------------------|----------------------------------|-----------------------|


  E.  T T E.  T T S S S S S S S S    S E.  S Q.     S T. X T T. X T T. X T  
--9-------9---9---9---7---5---9---|--7------------------------------7------|
----------------------------------|--------9-----------------9-------------|
----------------------------------|-------------------9--------------------|
----------------------------------|----------------------------------------|
----------------------------------|----------------------------------------|
----------------------------------|----------------------------------------|


   E.  T T  E  T T S  S S S Q    S     E.  T T  E  T T S  S S S Q    S  
--10-------10------9-10---7--------|--10-------10------9-10---7--------|
-----------------------------------|-----------------------------------|
-----------------------------------|-----------------------------------|
-----------------------------------|-----------------------------------|
-----------------------------------|-----------------------------------|
-----------------------------------|-----------------------------------|


   Q    S. T  T T  T T  Q    S. T  T T  T T     H        E  E   E  T T  S   
--12---------12---12---12---------12---12---|--12--------------12------10-||
--------------------------------------------|-----------------------------||
--------------------------------------------|-----------------------------||
--------------------------------------------|-----------------------------||
--------------------------------------------|-----------------------------||
--------------------------------------------|-----------------------------||




Duration Legend
---------------
W - whole
H - half
Q - quarter
E - 8th
S - 16th
T - 32nd
X - 64th
. - note dotted
|-n-|  - n-tuplets


Tablature Legend
----------------
L - tied note
x - dead note
g - grace note
(n) - ghost note
> - accentuded note
NH - natural harmonic
AH - artificial harmonic
TH - tapped harmonic
SH - semi harmonic
PH - pitch harmonic
h - hammer on
p - pull off
b - bend
br - bendRelease
pb - preBend
pbr - preBendRelease
brb - bendReleaseBend
\n/ - tremolo bar dip
\n - tremolo bar dive
-/n - tremolo bar Release up
/n\ - tremolo bar inverted dip
/n - tremolo bar return
-\n - tremolo bar Release down
S - shift slide
s - legato slide
/ -  slide into from below or out of upwards
\ -  slide into from above or out of downwards
~ - vibrato
W - wide vibrato
tr - trill
TP - tremolo picking
T - tapping
S - slap
P - pop
< - fade in
^ - brush up
v - brush down
Login or Register to remove this ad.