Ads

Red XIII's Theme (Final Fantasy VII) Guitar Tab

Submitted: Aug 17, 2013 by Colin_spade

0
Download | Listen
Game: Final Fantasy VII
Composer(s): Nobuo Uematsu
Style: Arrangement, Fingerstyle, Percussion
Series: Final Fantasy

AutoScroll: Slow | Medium | Fast
Red XIII Theme                                  


                                                                   Nobuo Uematsu
Track 1



     Q    E  E  Q    E  E     Q    E  E  Q    E  E     Q    E  E  Q    E  E   
E||------------------------|------------------------|------------------------|
B||------------------------|------------------------|------------------------|
G||------------------------|------------------------|------------------------|
D||--x----------x----------|--x----------x----------|--x----------x----------|
A||--x----------x----------|--x----------x----------|--x----------x----------|
E||--x----x--x--x----x--x--|--x----x--x--x----x--x--|--x----x--x--x----x--x--|


  Q    E  E  Q    E  E       E  E  E  E  Q    E  E     Q    E  E  Q    E  E   
------------------------||---0-----------3----------|--0----------3----------|
------------------------||---------0--3-------0--3--|-------0--3-------0--3--|
------------------------||*-------------------------|------------------------|
--x----------x----------||*--0--2--2--2--2----0--2--|--x----------x----------|
--x----------x----------||--------------------------|--x----------x----------|
--x----x--x--x----x--x--||--------------------------|--x----------x----------|


  E  E  E  E  Q    E  E     Q    E  E  Q    E  E     E  E  E  E  Q    E  E   
--0-----------3----------|--0----------3----------|--0-----------3----------|
--------0--3-------0--3--|-------0--3-------0--3--|--------0--3-------0--3--|
-------------------------|------------------------|-----0--0--0--0-------0--|
--0--2--2--2--2----0--2--|--x----------x----------|--4----------------4-----|
-------------------------|--x----------x----------|-------------------------|
-------------------------|--x----------x----------|-------------------------|


  Q    E  E  Q    E  E     E  E  E  E  Q    E  E     Q    E  E  Q    E  E   
--0----------3----------|--0-----------3----------|--0----------3----------|
-------0--3-------0--3--|--------0--3-------0--3--|-------0--3-------0--3--|
------------------------|-------------------------|------------------------|
--x----------x----------|--0--2--2--2--2----0--2--|--x----------x----------|
--x----------x----------|-------------------------|--x----------x----------|
--x----------x----------|-------------------------|--x----------x----------|


  E  E  E  E  Q    E  E     Q    E  E  Q    E  E     E  E  E  E  Q    E  E   
--0-----------3----------|--0----------3----------|--2-----------5----------|
--------0--3-------0--3--|-------0--3-------0--3--|--------0--4-------0--4--|
-------------------------|------------------------|--2--4--4--4--4----2--4--|
--0--2--2--2--2----0--2--|--x----------x----------|-------------------------|
-------------------------|--x----------x----------|-------------------------|
-------------------------|--x----------x----------|-------------------------|


  Q    E  E  Q    E  E     E  E  E  E  Q    E  E     Q    E  E  Q    E  E   
--2----------5----------|--0-----------3----------|--0----------3----------|
-------0--4-------0--4--|--------0--3-------0--3--|-------0--3-------0--3--|
------------------------|-------------------------|------------------------|
--x----------x----------|--0--2--2--2--2----0--2--|--x----------x----------|
--x----------x----------|-------------------------|--x----------x----------|
--x----------x----------|-------------------------|--x----------x----------|


                                                     ^                     
  E  E  E  E  Q    E  E     Q    E  E  Q    E  E     Q    Q    E  E  Q     
--0-----------3----------|--0----------3----------|-----------------------|
--------0--3-------0--3--|-------0--3-------0--3--|-----------------------|
-------------------------|------------------------|--0--------------------|
--0--2--2--2--2----0--2--|--x----------x----------|-------x----------x----|
-------------------------|--x----------x----------|--4----x----------x----|
-------------------------|--x----------x----------|--5----x----x-----x----|


                            ^                                              
  E  E  E  E  E  E  Q       Q    Q    E  E  Q       E  E  Q    E  E  Q     
--3----------------------|-----------------------|------------------------|
-----4--2----------------|-----------------------|------------------------|
-----------2--L----------|--2--------------------|------------------------|
--------------------x----|--1----x----------x----|--------x----------x----|
--------------------x----|--2----x----------x----|--------x----------x----|
--x-----x-----x-----x----|-------x----x-----x----|--x--x--x----x--x--x----|


  Q    Q    E  E  Q       E  E  E  E  E  E  E  E     Q    Q    Q    Q     
-----------------------|-----------------------5--|----------------------|
-----------------------|--------------4--0--2-----|----------------------|
--0--------------------|--------0--2--------------|--0-------------------|
-------x----------x----|-----4--------------------|-----------------x----|
--4----x----------x----|--------------------------|--4--------------x----|
--5----x----x-----x----|--x-----x-----x-----x-----|--5----x----x----x----|


  E  E  Q    E  E  Q       Q    Q    E  E  Q       Q    E  S  S E  E  E  E   
------------------------|-----------------------|---------------3-----------|
------------------------|-----------------------|----------2h-4----4--2-----|
------------------------|--0--------------------|------------------------2--|
--------x----------x----|-------x----------x----|---------------------------|
--------x----------x----|--4----x----------x----|---------------------------|
--x--x--x----x--x--x----|--5----x----x--x--x----|--x----x-------x-----x-----|


  Q    Q    E  E  Q       E  E  Q    E  E  Q       Q    Q    E  E  Q     
-----------------------|------------------------|-----------------------|
-----------------------|------------------------|-----------------------|
--2--------------------|------------------------|--0--------------------|
--1----x----------x----|--------x----------x----|-------x----------x----|
--2----x----------x----|--------x----------x----|--4----x----------x----|
-------x----x--x--x----|--x--x--x----x--x--x----|--5----x----x--x--x----|


                           ^                                                
  E  E  Q    E  E  Q       Q    Q    E  E  Q       E  E  E  E  E  E  E  E   
------------------------|-----------------------|--------------0--------5--|
------------------------|-----------------------|-----------4-----7--8-----|
------------------------|--4--------------------|-----5--7-----------------|
--------x----------x----|--4----x----------x----|--------------------------|
--------x----------x----|--6----x----------x----|--------------------------|
--x--x--x----x--x--x----|--8----x----x--x--x----|--x-----x-----x-----x-----|


  Q    Q    E  E  Q       Q    Q    Q    Q       
--7--------------------|-----------------------||
-----------------------|-----------------------||
-----------------------|----------------------*||
-------x----------x----|----------------------*||
--6----x----------x----|--6----6----6----6-----||
-------x----x-----x----|-----------------------||




Duration Legend
---------------
W - whole
H - half
Q - quarter
E - 8th
S - 16th
T - 32nd
X - 64th
. - note dotted
|-n-|  - n-tuplets


Tablature Legend
----------------
L - tied note
x - dead note
g - grace note
(n) - ghost note
> - accentuded note
NH - natural harmonic
AH - artificial harmonic
TH - tapped harmonic
SH - semi harmonic
PH - pitch harmonic
h - hammer on
p - pull off
b - bend
br - bendRelease
pb - preBend
pbr - preBendRelease
brb - bendReleaseBend
\n/ - tremolo bar dip
\n - tremolo bar dive
-/n - tremolo bar Release up
/n\ - tremolo bar inverted dip
/n - tremolo bar return
-\n - tremolo bar Release down
S - shift slide
s - legato slide
/ -  slide into from below or out of upwards
\ -  slide into from above or out of downwards
~ - vibrato
W - wide vibrato
tr - trill
TP - tremolo picking
T - tapping
S - slap
P - pop
< - fade in
^ - brush up
v - brush down
Login or Register to remove this ad.