Ads

Red XIII's Theme (Final Fantasy VII) Bass/Guitar Tab

Submitted: Jun 26, 2010 by khensel

5
Average: 5 (1 vote)
Download | Listen
Game: Final Fantasy VII
Composer(s): Nobuo Uematsu
Style: Transcription
Series: Final Fantasy

AutoScroll: Slow | Medium | Fast
Red XIII's Theme
Composed by Nobuo Uematsu
Tabbed by brningpyre

- Arranged for Guitar (6-string) and Bass (4-string) from piano sheet music, with some changes/fixes.
- "~" represents holding the note (optional vibrato)
- "h" represents a hammer-on (between notes)
- Loop is on { [A], [B] } (start with 4 bars of just drums)
- "10" and "68" represent the 10th fret, and the 6th->8th frets, respectively
- 126 bpm (63 bpm half-count)

[A]
G|-----------------|-----------------|-----------------|-----------------
D|-----------------|-----------------|-----------------|-----------------
A|-5h7-7-7-7---5-7-|-----------------|-5h7-7-7-7---5-7-|-----------------
E|-----------------|-----------------|-----------------|-----------------
   1 + 2 + 3 + 4 +   1 + 2 + 3 + 4 +   1 + 2 + 3 + 4 +   1 + 2 + 3 + 4 +

e|-----------------|-----------------|-----------------|-----------------
B|---------8-------|---------8-------|---------8-------|---------8-------
G|-9-----7-------7-|-9-----7-------7-|-9-----7-------7-|-9-----7-------7-
D|-----9-------9---|-----9-------9---|-----9-------9---|-----9-------9---
A|-----------------|-----------------|-----------------|-----------------
E|-----------------|-----------------|-----------------|-----------------
   1 + 2 + 3 + 4 +   1 + 2 + 3 + 4 +   1 + 2 + 3 + 4 +   1 + 2 + 3 + 4 +


G|-----------------|-----------------|-----------------|-----------------
D|-4h5-5-5-5---4-5-|-----------------|-----------------|-----------------
A|-----------------|-----------------|-5h7-7-7-7---5-7-|-----------------
E|-----------------|-----------------|-----------------|-----------------
   1 + 2 + 3 + 4 +   1 + 2 + 3 + 4 +   1 + 2 + 3 + 4 +   1 + 2 + 3 + 4 +

e|-----------------|-----------------|-----------------|-----------------
B|---------8-------|---------8-------|---------8-------|---------8-------
G|-9-----7-------7-|-9-----7-------7-|-9-----7-------7-|-9-----7-------7-
D|-----9-------9---|-----9-------9---|-----9-------9---|-----9-------9---
A|-----------------|-----------------|-----------------|-----------------
E|-----------------|-----------------|-----------------|-----------------
   1 + 2 + 3 + 4 +   1 + 2 + 3 + 4 +   1 + 2 + 3 + 4 +   1 + 2 + 3 + 4 +


G|-----------------|-----------------|---4-4-4-4-----4-|-----------------
D|-5h7-7-7-7---5-7-|-----------------|-7-----------7---|-----------------
A|-----------------|-----------------|-----------------|-----------------
E|-----------------|-----------------|-----------------|-----------------
   1 + 2 + 3 + 4 +   1 + 2 + 3 + 4 +   1 + 2 + 3 + 4 +   1 + 2 + 3 + 4 +

e|-----------------|-----------------|-----------------|-----------------
B|---------8-------|---------8-------|-7-------10------|-7-------10------
G|-9-----7-------7-|-9-----7-------7-|-------8-------7-|-------8-------7-
D|-----9-------9---|-----9-------9---|-----9-------9---|-----9-------9---
A|-----------------|-----------------|-----------------|-----------------
E|-----------------|-----------------|-----------------|-----------------
   1 + 2 + 3 + 4 +   1 + 2 + 3 + 4 +   1 + 2 + 3 + 4 +   1 + 2 + 3 + 4 +


G|-----------------|-----------------|-----------------|-----------------
D|-----------------|-----------------|-----------------|-----------------
A|-5h7-7-7-7---5-7-|-----------------|-5h7-7-7-7---5-7-|-----------------
E|-----------------|-----------------|-----------------|-----------------
   1 + 2 + 3 + 4 +   1 + 2 + 3 + 4 +   1 + 2 + 3 + 4 +   1 + 2 + 3 + 4 +

e|-----------------|-----------------|-----------------|-----------------
B|---------8-------|---------8-------|---------8-------|---------8-------
G|-9-----7-------7-|-9-----7-------7-|-9-----7-------7-|-9-----7-------7-
D|-----9-------9---|-----9-------9---|-----9-------9---|-----9-------9---
A|-----------------|-----------------|-----------------|-----------------
E|-----------------|-----------------|-----------------|-----------------
   1 + 2 + 3 + 4 +   1 + 2 + 3 + 4 +   1 + 2 + 3 + 4 +   1 + 2 + 3 + 4 +


[B]
G|-----------------|-----------------|-----------------|-----------------
D|-----------------|-----------------|-----------------|-----------------
A|-4~~~~~~~~~~~~~~~|~~~~~~~~~~~~~~~~-|-4~~~~~~~~~~~~~~~|~~~~~~~~~~~~~~~~-
E|-----------------|-----------------|-----------------|-----------------
   1 + 2 + 3 + 4 +   1 + 2 + 3 + 4 +   1 + 2 + 3 + 4 +   1 + 2 + 3 + 4 +

e|-----------------|-----------------|-----------------|-----------------
B|-----------------|-8---------------|-----------------|-----------------
G|-----------------|---8-6-----------|-----------------|-----------------
D|-4~~~~~~~~~~~~~~-|-------7~~~~~~~~-|-6~~~~~~~~~~~~~~~|~~~~~~~~~~~~~~~~-
A|-4~~~~~~~~~~~~~~-|-----------------|-6~~~~~~~~~~~~~~~|~~~~~~~~~~~~~~~~-
E|-5~~~~~~~~~~~~~~-|-----------------|-7~~~~~~~~~~~~~~~|~~~~~~~~~~~~~~~~-
   1 + 2 + 3 + 4 +   1 + 2 + 3 + 4 +   1 + 2 + 3 + 4 +   1 + 2 + 3 + 4 +


G|-----------------|-----------------|-----------------|-----------------
D|-----------------|-----------------|-----------------|-----------------
A|-4~~~~~~~~~~~~~~~|~~~~~~~~~~~~~~~~-|-4~~~~~~~~~~~~~~~|~~~~~~~~~~~~~~~~-
E|-----------------|-----------------|-----------------|-----------------
   1 + 2 + 3 + 4 +   1 + 2 + 3 + 4 +   1 + 2 + 3 + 4 +   1 + 2 + 3 + 4 +

e|-----------------|-----------------|-----------------|-----------------
B|-----------------|---------------10|-----------------|-----------------
G|-----------------|---------8---6---|-----------------|-----------------
D|-4~~~~~~~~~~~~~~-|-------7---9-----|-4~~~~~~~~~~~~~~~|~~~~~~~~~~~~~~~~-
A|-4~~~~~~~~~~~~~~-|---9-10----------|-4~~~~~~~~~~~~~~~|~~~~~~~~~~~~~~~~-
E|-5~~~~~~~~~~~~~~-|-----------------|-5~~~~~~~~~~~~~~~|~~~~~~~~~~~~~~~~-
   1 + 2 + 3 + 4 +   1 + 2 + 3 + 4 +   1 + 2 + 3 + 4 +   1 + 2 + 3 + 4 +


G|-----------------|-----------------|-----------------|-----------------
D|-----------------|-----------------|-----------------|-----------------
A|-4~~~~~~~~~~~~~~~|~~~~~~~~~~~~~~~~-|-4~~~~~~~~~~~~~~~|~~~~~~~~~~~~~~~~-
E|-----------------|-----------------|-----------------|-----------------
   1 + 2 + 3 + 4 +   1 + 2 + 3 + 4 +   1 + 2 + 3 + 4 +   1 + 2 + 3 + 4 +

e|-----------------|-----------------|-----------------|-----------------
B|-----------------|---------8-------|-----------------|-----------------
G|-----------------|-------68--8-6---|-----------------|-----------------
D|-4~~~~~~~~~~~~~~-|---------------7-|-6~~~~~~~~~~~~~~~|~~~~~~~~~~~~~~~~-
A|-4~~~~~~~~~~~~~~-|-----------------|-6~~~~~~~~~~~~~~~|~~~~~~~~~~~~~~~~-
E|-5~~~~~~~~~~~~~~-|-----------------|-7~~~~~~~~~~~~~~~|~~~~~~~~~~~~~~~~-
   1 + 2 + 3 + 4 +   1 + 2 + 3 + 4 +   1 + 2 + 3 + 4 +   1 + 2 + 3 + 4 +


G|-----------------|-----------------|-----------------|-----------------
D|-----------------|-----------------|-----------------|-----------------
A|-4~~~~~~~~~~~~~~~|~~~~~~~~~~~~~~~~-|-6~~~~~~~~~~~~~~~|~~~~~~~~~~~~~~~~-
E|-----------------|-----------------|-----------------|-----------------
   1 + 2 + 3 + 4 +   1 + 2 + 3 + 4 +   1 + 2 + 3 + 4 +   1 + 2 + 3 + 4 +

e|-----------------|-----------------|-----------------|---------------5-
B|-----------------|-----------------|-----------------|---------5-7-8---
G|-----------------|-----------------|-10~~~~~~~~~~~~~-|---5-6-8---------
D|-4~~~~~~~~~~~~~~~|~~~~~~~~~~~~~~~~-|-8~~~~~~~~~~~~~~-|-----------------
A|-4~~~~~~~~~~~~~~~|~~~~~~~~~~~~~~~~-|-8~~~~~~~~~~~~~~-|-----------------
E|-5~~~~~~~~~~~~~~~|~~~~~~~~~~~~~~~~-|-9~~~~~~~~~~~~~~-|-----------------
   1 + 2 + 3 + 4 +   1 + 2 + 3 + 4 +   1 + 2 + 3 + 4 +   1 + 2 + 3 + 4 +


G|-----------------|-----------------|
D|-----------------|-----------------|
A|-6~~~~~~~~~~~~~~~|-6---6---6---6---|
E|-----------------|-----------------|
   1 + 2 + 3 + 4 +   1 + 2 + 3 + 4 +

e|-7~~~~~~~~~~~~~~-|-----------------|
B|-----------------|-----------------|
G|-----------------|-----------------|
D|-----------------|-----------------|
A|-----------------|-----------------|
E|-----------------|-----------------|
   1 + 2 + 3 + 4 +   1 + 2 + 3 + 4 +
Login or Register to remove this ad.