Parochial Town (Final Fantasy VII) Bass Tab

Submitted: Apr 28, 2011 by

0
Download | Listen
Game: Final Fantasy VII
Composer(s): Nobuo Uematsu
Style: Transcription
Series: Final Fantasy

AutoScroll: Slow | Medium | Fast
Parochial Town
Final Fantasy 7
Nobuo Uematsu
4/27/11


**4 string bass**  **Normal tuning**


G|----0----3------5---------------|
D|--------------------------------|
A|-3------------------------------|
E|--------------------------------|

G|--------------------------------|
D|-3------------------------------|
A|----3---------------------------|
E|-------3---4--------------------|

G|--------0----3-------5----------|
D|--------------------------------|
A|-1--3---------------------------|
E|--------------------------------|

G|-1--------------------1---------|
D|-----1---------------------0----|
A|-------------0---1--------------|
E|----------4---------------------|

G|----0----3------5---------------|
D|--------------------------------|
A|-3------------------------------|
E|--------------------------------|

G|--------------------------------|
D|-3------------------------------|
A|----3---------------------------|
E|-------3---4--------------------|

G|--------------------------------|
D|--1-------------------------1---|
A|--------------------------------|
E|--------------------------------|

G|--------------------------------|
D|--0-------------------------0---|
A|--------------------------------|
E|--------------------------------|

G|--------------------------------|
D|--------------------------------|
A|--4--------------------------4--|
E|--------------------------------|

G|----0----3------5---------------|
D|--------------------------------|
A|-3------------------------------|
E|--------------------------------|

G|--------------------------------|
D|-3------------------------------|
A|----3---------------------------|
E|-------3---4--------------------|

G|--------0----3-------5----------|
D|--------------------------------|
A|-1--3---------------------------|
E|--------------------------------|

G|-1--------------------1---------|
D|-----1---------------------0----|
A|-------------0---1--------------|
E|----------4---------------------|

G|----0----3------5---------------|
D|--------------------------------|
A|-3------------------------------|
E|--------------------------------|

G|--------------------------------|
D|-3------------------------------|
A|----3---------------------------|
E|-------3---4--------------------|

G|--------------------------------|
D|--1-------------------------1---|
A|--------------------------------|
E|--------------------------------|

G|--------------------------------|
D|--0-------------------------0---|
A|--------------------------------|
E|--------------------------------|

G|--------------------------------|
D|--------------------------------|
A|--4-----------------------------|
E|--------------------------------|

G|--------------------------------|
D|--------------------------------|
A|---------1--3----4--------------|
E|--------------------------------|

G|--------------------------------|
D|------------1----3--------------|
A|---------4----------------------|
E|--------------------------------|

G|--------------------------------|
D|--------------------------------|
A|--------------------------------|
E|---------1--3----4--------------|

G|--------------------------------|
D|--1----------3------------------|
A|--------1-----------------------|
E|-----4----------4--2-----3--3---|

**Repeat as many times as wanted**
          
           **Enjoy**
Login or Register to remove this ad.