Ads

Oppressed People (Final Fantasy VII) Bass/Guitar Tab

Submitted: Dec 19, 2012 by hashel (Last updated: Dec 19, 2012)

5
Average: 5 (1 vote)
Download | Listen
Game: Final Fantasy VII
Composer(s): Nobuo Uematsu
Style: 2 or more instruments, Transcription
Series: Final Fantasy

This song is also called 虐げられた民衆

AutoScroll: Slow | Medium | Fast
Title: Oppressed People
Artist: Nobuo Uematsu
Album: FF7 OST
Music: Nobuo Uematsu
Copyright: Squaresoft
Tabber: Hashel05
Tempo = 137


Main Melody



E |----|----|----|----|----|----|----|----|--------------14------------|--13L--|
B |----|----|----|----|----|----|----|----|--------------------16------|-------|
G |----|----|----|----|----|----|----|----|----------------------------|-------|
D |----|----|----|----|----|----|----|----|----------------------------|-------|
A |----|----|----|----|----|----|----|----|----------------------------|-------|
E |----|----|----|----|----|----|----|----|----------------------------|-------|


--13~-----|----|----------------------------|-------|----------|----|----|----|
----------|----|----------------------------|-------|----------|----|----|----|
----------|----|--------------11------------|--10L--|--10~-----|----|----|----|
----------|----|--------------------13------|-------|----------|----|----|----|
----------|----|----------------------------|-------|----------|----|----|----|
----------|----|----------------------------|-------|----------|----|----|----|


--------------15------------|--13L------13~--|
--------------------16------|----------------|
----------------------------|----------------|
----------------------------|----------------|
----------------------------|----------------|
----------------------------|----------------|


--------------------------------------------------------------------------------
--16s---------11----------11----------13-------14-------------13----------11----
--------------------------------------------------------------------------------
--------------------------------------------------------------------------------
--------------------------------------------------------------------------------
--------------------------------------------------------------------------------


--------------------|-------|----------------------------|
------13------------|--11L--|--11~-----------------------|
--------------------|-------|--------------12------------|
--------------------|-------|--------------------13------|
--------------------|-------|----------------------------|
--------------------|-------|----------------------------|


----------------------------|----------------------------|----------------|
----------------------------|-----11-11-9--11-13---------|--14s11L--------|
--10L---------------10-8h---|--10------------------------|----------------|
----------------------------|----------------------------|----------------|
----------------------------|----------------------------|----------------|
----------------------------|----------------------------|----------------|


----------|----|----|----|----|----|----|----|----|----|----|----|----|----|
--11~-----|----|----|----|----|----|----|----|----|----|----|----|----|----|
----------|----|----|----|----|----|----|----|----|----|----|----|----|----|
----------|----|----|----|----|----|----|----|----|----|----|----|----|----|
----------|----|----|----|----|----|----|----|----|----|----|----|----|----|
----------|----|----|----|----|----|----|----|----|----|----|----|----|----|


Rhythm



E |----|----------------------------------------|
B |----|-----------11----11----------11----11---|
G |----|-----------10----10----------10----10---|
D |----|-----------8-----8-----------8-----8----|
A |----|----------------------------------------|
E |----|----------------------------------------|


----------------------------------------|
-----------12----12----------12----12---|
-----------11----11----------11----11---|
-----------9-----9-----------9-----9----|
----------------------------------------|
----------------------------------------|


----------------------------------------|
-----------11----11----------11----11---|
-----------10----10----------10----10---|
-----------8-----8-----------8-----8----|
----------------------------------------|
----------------------------------------|


----------------------------------------|
-----------12----12----12----12---------|
-----------11----11----11----11---------|
-----------9-----9-----9-----9----------|
----------------------------------------|
----------------------------------------|


----------------------------------------|
-----------11----11----------11----11---|
-----------10----10----------10----10---|
-----------8-----8-----------8-----8----|
----------------------------------------|
----------------------------------------|


----------------------------------------|
-----------12----12----------12----12---|
-----------11----11----------11----11---|
-----------9-----9-----------9-----9----|
----------------------------------------|
----------------------------------------|


----------------------------------------|
-----------11----11----------11----11---|
-----------10----10----------10----10---|
-----------8-----8-----------8-----8----|
----------------------------------------|
----------------------------------------|


----------------------------------------|
-----------12----12----12----12---------|
-----------11----11----11----11---------|
-----------9-----9-----9-----9----------|
----------------------------------------|
----------------------------------------|


----------------------------------------|
-----------11----11----------11----11---|
-----------10----10----------10----10---|
-----------8-----8-----------8-----8----|
----------------------------------------|
----------------------------------------|


----------------------------------------|
-----------12----12----------12----12---|
-----------11----11----------11----11---|
-----------9-----9-----------9-----9----|
----------------------------------------|
----------------------------------------|


----------------------------------------|
-----------11----11----------11----11---|
-----------10----10----------10----10---|
-----------8-----8-----------8-----8----|
----------------------------------------|
----------------------------------------|


----------------------------------------|
-----------12----12----12----12---------|
-----------11----11----11----11---------|
-----------9-----9-----9-----9----------|
----------------------------------------|
----------------------------------------|


----------------------------------------|
-----------11----11----------11----11---|
-----------10----10----------10----10---|
-----------8-----8-----------8-----8----|
----------------------------------------|
----------------------------------------|


----------------------------------------|
-----------12----12----------12----12---|
-----------11----11----------11----11---|
-----------9-----9-----------9-----9----|
----------------------------------------|
----------------------------------------|


----------------------------------------|
-----------11----11----------11----11---|
-----------10----10----------10----10---|
-----------8-----8-----------8-----8----|
----------------------------------------|
----------------------------------------|


----------------------------------------|
-----------12----12----12----12---------|
-----------11----11----11----11---------|
-----------9-----9-----9-----9----------|
----------------------------------------|
----------------------------------------|


----------------------------------------|
-----------11----11----------11----11---|
-----------10----10----------10----10---|
-----------8-----8-----------8-----8----|
----------------------------------------|
----------------------------------------|


----------------------------------------|
-----------13----13----------13----13---|
-----------12----12----------12----12---|
-----------10----10----------10----10---|
----------------------------------------|
----------------------------------------|


----------------------------------------|
-----------11----11----------11----11---|
-----------10----10----------10----10---|
-----------8-----8-----------8-----8----|
----------------------------------------|
----------------------------------------|


----------------------------------------|
-----------14----13----11----11----11---|
-----------13----12----10----10----10---|
-----------11----10----8-----8-----8----|
----------------------------------------|
----------------------------------------|


----------------------------------------|
-----------11----11----------11----11---|
-----------10----10----------10----10---|
-----------8-----8-----------8-----8----|
----------------------------------------|
----------------------------------------|


----------------------------------------|
-----------13----13----------13----13---|
-----------12----12----------12----12---|
-----------10----10----------10----10---|
----------------------------------------|
----------------------------------------|


----------------------------------------|
-----------11----11----------11----11---|
-----------10----10----------10----10---|
-----------8-----8-----------8-----8----|
----------------------------------------|
----------------------------------------|


----------------------------------------|
-----------14----13----11----11----11---|
-----------13----12----10----10----10---|
-----------11----10----8-----8-----8----|
----------------------------------------|
----------------------------------------|


----------------------------------------|
-----------11----11----------11----11---|
-----------10----10----------10----10---|
-----------8-----8-----------8-----8----|
----------------------------------------|
----------------------------------------|


----------------------------------------|
-----------11----11----------11----11---|
-----------10----10----------10----10---|
-----------8-----8-----------8-----8----|
----------------------------------------|
----------------------------------------|


----------------------------------------|
-----------11----11----------11----11---|
-----------10----10----------10----10---|
-----------8-----8-----------8-----8----|
----------------------------------------|
----------------------------------------|


----------------------------------------|----|----|----|----|----|----|----|
-----------11----11----11----11---------|----|----|----|----|----|----|----|
-----------10----10----10----10---------|----|----|----|----|----|----|----|
-----------8-----8-----8-----8----------|----|----|----|----|----|----|----|
----------------------------------------|----|----|----|----|----|----|----|
----------------------------------------|----|----|----|----|----|----|----|


Bass



G |----|----------------------------|----------------------------|
D |----|----------------------------|----------------------------|
A |----|--1-----1-------------------|--------------2-------------|
E |----|--------------1-------------|--2-----2-------------------|


----------------------------|----------------------------|
----------------------------|----------------------------|
-----1L-1--1----------------|--------------2-------------|
--------------1-----1-------|--2-----2-------------------|


----------------------------|----------------------------|
----------------------------|----------------------------|
--1-----1-------------------|--------------2-------------|
--------------1-------------|--2-----2-------------------|


----------------------------|----------------------------|
----------------------------|----------------------------|
-----1L-1--1----------------|--------------2-------------|
--------------1-----1-------|--2-----2-------------------|


----------------------------|----------------------------|
----------------------------|----------------------------|
--1-----1-------------------|--------------2-------------|
--------------1-------------|--2-----2-------------------|


----------------------------|----------------------------|
----------------------------|----------------------------|
-----1L-1--1----------------|--------------2-------------|
--------------1-----1-------|--2-----2-------------------|


----------------------------|----------------------------|
----------------------------|----------------------------|
--1-----1-------------------|--------------2-------------|
--------------1-------------|--2-----2-------------------|


----------------------------|----------------------------|-------|
----------------------------|----------------------------|-------|
-----1L-1--1----------------|--------------2-------------|--1----|
--------------1-----1-------|--2-----2-------------------|-------|


----------------------------|-------|----------------|----------------|
----------------------------|-------|----------------|----------------|
-----------0--3--3----------|--1----|----------------|-----1L----1----|
----------------------------|-------|-----2-----4----|----------------|


----------------------------|-------|----------------|-------|----|----|----|
----------------------------|-------|----------------|-------|----|----|----|
-----------0--3--3----------|--1----|----------------|--1----|----|----|----|
----------------------------|-------|-----2-----4----|-------|----|----|----|


----------------------------|----------------------------|
----------------------------|----------------------------|
--1-----1--1-----1----------|--------------2--------2----|
--------------1--------1----|--2-----2--2-----2----------|


----------------------------------------------------|
----------------------------------------------------|
--------1-----------1--------1--------1-------------|
--------------------------1--------1--------1-------|


----------------------------|----------------------------|
----------------------------|----------------------------|
--------------2--------2----|--1-----1--1-----1----------|
--2--1--2--1-----2----------|--------------1--------1----|


----------------------------|
----------------------------|
--------------2--------2----|
--2-----2--2-----2----------|


----------------------------------------------------|
----------------------------------------------------|
--------1-----------1--------1--------1-------------|
--------------------------1--------1--------1-------|


----------------------------|----------------------------|
----------------------------|----------------------------|
--------------2--------2----|--------------2--------2----|
--2--1--2--1-----2----------|--2-----2--2-----2----------|


----------------------------|----------------------------|
----------------------------|----------------------------|
--------------2--------2----|--------------2--------2----|
--2-----2--2-----2----------|--2-----2--2-----2----------|


----------------------------||
----------------------------||
--------------2--------2----||
--2-----2--2-----2----------||

Login or Register to remove this ad.