Ads

Oppressed People (Final Fantasy VII) Bass Tab

Submitted: Aug 23, 2012 by auriplane (Last updated: Aug 23, 2012)

0
Download | Listen
Game: Final Fantasy VII
Composer(s): Nobuo Uematsu
Style: Transcription
Series: Final Fantasy

This song is also called 虐げられた民衆

AutoScroll: Slow | Medium | Fast
               Final Fantasy VII - Oppressed People BASS TAB
                           Song by Nobuo Uematsu

                  Tabbed by auriplane ([email protected])


Four-string bass, standard tuning.


G |------------|------------|------------|------------|
D |------------|------------|------------|------------| x4
A |1--1--------|------2-----|--1--1------|------2-----|
E |------1-----|2--2--------|------1--1--|2--2--------|


G |------------|------------|------------|------------|
D |------------|------------|------------|------------|
A |1-----------|-----13-3--1|------------|------------|
E |------------|------------|------------|---2-----4--|


G |------------|------------|------------|------------|
D |------------|------------|------------|------------|
A |---1--------|-----13-3--1|------------|-----------1|
E |------------|------------|------------|---2----4---|

        Rest for four measures

G |------------|------------|------------|------------|
D |------------|------------|------------|------------| x2
A |1--1-1--1---|------2----2|--1--1-1--1-|------2----2|
E |------1----1|2--2-2--2---|------1--1-1|2-12-2--2---|

   (begin fade out)
G |------------|------------|------------|------------|
D |------------|------------|------------|------------|
A |------2----2|------2----2|------2----2|------2----2|
E |2--2-2--2---|2--2-2--2---|2--2-2--2---|2--2-2--2---|


Login or Register to remove this ad.