Ads

One-winged Angel (Final Fantasy VII) Ukulele Tab

Submitted: Nov 25, 2021 by ajarthur (Last updated: Nov 27, 2021)

4.75
Average: 4.8 (4 votes)
Download | No audio :(
Game: Final Fantasy VII
Composer(s): Nobuo Uematsu
Style: Fingerstyle, Natural harmonics
Series: Final Fantasy

AutoScroll: Slow | Medium | Fast
                  One-Winged Angel Ukulele
Composed - Nobuo Uematsu
Arranged - Alan Arthur, based on the Guitar arrangement by Daisuke Minamizawa

Low G tuning

					 |1.-------------------------------------|
     E  E  E  E  E  E  E  E                 E  E  E   E  E  E  E  E  
||---------0-----------0-----|-----------|--0-----0------0-----0-----|-----------|
||*--5-----5-----5-----5-----|----*/-----|---------------------------|----*/----*|
||*--3-----3-----3-----3-----|----/*-----|---------------------------|----/*----*|
||---2-----2-----2-----2-----|-----------|--1--2--3-2-1--2--1--4--2--|-----------|

|2.--------------------------------------------|
   T   T   T   T              T   T   T   E    Q   Q   Q   E  T    E  E  E  E  Q   E  E
|----------------------|--------------------|------0-------0-----|-------0-----0---0----|
|---00--00--00--00--*/-|-*/----00--00--00---|--5---5---5---5-----|----------------------|
|--4---3---2---0----/*-|-/*---------------5-|--3---3---3---3-----|-3--0-----------------|
|----------------------|------4---2---1-----|--2---2---2---2-234-|----------2---------2-|

  E  E  E  E  E  E  E  E   E  E  E  E  E  E  E  E    E  E  E  E  E  E  E  E   
|-0-----0-----0-----0----|-0--0-----0-----0-----0--|-------0-----0--0-----0--|
|-------------1----------|-------------------------|-------5-----5-----------|
|------------------------|-----3-2---3-2-----3-----|-3-----3-----3---3-2---3-|
|-1--2--4----------------|----------------234---234|-------2-----2-----------|

  E  E  E  E  E  E  E  E   Q     T     Q     T       Q     T     Q     T   
|-0-----0-----0-----0----|-0-----------------------|-------------------------|
|-------5-----5----------|-------------------0-0-0-|-------0-0-0-------0-0-0-|
|-2-----3-----3-----2----|-------0-0-0-2-----------|-5-----------3-----------|
|-------2-----2----------|-4-----2-----2-----2-----|-2-----2-----2-----2-----|

  Q     T     Q     T       Q     T     Q     T        E  E  E  E  E  E  E  E  
|-------------------------|-0------------------------|-----2-0-----------------|
|-2-----0-0-0-3-----0-0-0-|-------0-0-0-------0-0-0--|----------------------2-4|
|-------------------------|-------------3------------|--0-3--------------------|
|-2-----2-----2-----2-----|-2-----2-----2-----2------|-2-----2-----2-----2-----|

			  7/8
  E  E  E  E  E  E  E  E    E  E  E  E  E  E  E    E  E  E  E  E  E  E    
|-0--2--0-----------------|----------5--4--------|-------------------3--|
|----------4--2--1--------|-2--------------4--2--|-1--------4--3--------|
|-------------------3--1--|----2--3-----5--------|----0--1--------2-----|
|-2-----2-----2-----2-----|----------------------|-------4-----3-----1--|

		       4/4
  E  E  E  E  E  E  E    Q  Q  Q  Q    Q  Q  Q  Q    Q  Q  Q  Q    Q  Q  Q  Q  
|-2--------6--5--0-----|-9-----------|-------------|-------------|-------------|
|----2--3-----------6--|-------------|-------------|-------------|-------------|
|-------0-----2--------|-------------|-------------|-------------|-------------|
|-0-----------------8--|-9--9--9--9--|-9--9--9--9--|-0--0--0--0--|-0--0--0--0--|

  E  E  E  E  E  E  E  E    E  E  E  E  E  E  E  E    E  E  E  E  E  E  E  E
|-------------------------|-------------------------|-------------------------|
|-3-----3-----3-----3-----|-1-----1-----1-----1-----|-2-----2-----2-----2-----|
|-2-----2-----2-----2-----|-0-----0-----0-----0-----|-0-----0-----0-----0-----|
|-3-----3-----3-----3-----|-1-----1-----1-----1-----|-2-----2-----2-----2-----|

  E  E  E  E  E  E  E  E    E  E  E  E  E  E  E  E    E  E  E  E  E  E  E  E
|-------------------------|-1-----1-----1-----1-----|-2-----2-----2-----2-----|
|-1-----1-----1-----1-----|-3-----3-----3-----3-----|-4-----4-----4-----4-----|
|-1-----1-----1-----1-----|-2-----2-----2-----2-----|-3-----3-----3-----3-----|
|-1-----1-----1-----1-----|-0-----0-----0-----0-----|-0-----0-----0-----0-----|

  E  E  E  E  E  E  E  E    E  E  E  E  E  E  E  E      E  E  E  E  E  E  E  E
|-1-----1-----1-----1-----|-2-----2-----2-----2-----||--5-----5-----5--4--5---|
|-1-----1-----1-----1-----|-4-----4-----4-----4-----||*-6-----6-----6--5--6---|
|-2-----2-----2-----2-----|-4-----4-----4-----4-----||*-7-----7-----7--7--7---|
|-0-----0-----0-----0-----|-0-----0-----0-----0-----||--0-----0-----0-----0---|

			         |1.---------------------------------------------------||
  E  E  E  E  E  E  E  E     2     E  E  Q.   E  E  E    E  E  E  E  Q   E  E      2
|-5--5--6-----5--5--6----|-------|-13-13-10------------|-----------------------|-------||
|-6--6--6-----6--6--6----|--*//--|-10-10-10------------|-----------------------|--*//-*||
|-7--7--6-----7--7--6----|--//*--|-10-10-10------------|-0--0--3--3--2---0--3--|--//*-*||
|-0-----0-----0-----0----|-------|-0-----0----0--0--0--|-0--0--0--0--0---0--0--|-------||

|2.-----------------------
  E  E  Q   E  E  ---T---    Q  E E E E E E   E  E  Q    E  E  ---T---    Q  E E E E E E
|-13-13-10-----------------|----------------|-13-13-10------------------|---------------|
|-10-10-10-----------------|----------------|-10-10-10---------15-15----|---------------|
|-10-10-10--------14-14-12-|-10-------------|-10-10-10---------------14-|-10------------|
|-0-----0---0--0--0--0--0--|-0--0-0-0-0-0-0-|-0--0--0----0--0--0--0--0--|-0--0-0-0-0-0-0|

[x2-------------------------------------------------------------------------------------]
  E  E  Q   E  E  E  E    E E E E E E E E   E  E  Q   E  E  E  E    E E E E E E E E 
|-----------------------|-----------------|-----------------------|------------------||
|-----------------------|-----------------|-----------------------|-----------------*||
|-------10--9--9--11----|-----------------|-------10--10-10-9-----|-----------------*||
|-8--8--8---8--8--8-----|-8-8-8-8-8-8-8-8-|-8--8--8---8--8--8-----|-8-8-8-8-8-8-8-8--||

|3.------------------------
  E  E  E  E  E  E  E  E    E  E  E  E  E  E  E  E    E  E  E  E  E  E  E  E
|-13-13-10----------------|-------------------------|-13-13-10----------------|
|-10-10-10----------------|-------------------------|-10-10-10----------------|
|-10-10-10----------------|-------------------------|-10-10-10----4--4--4--4--|
|-0-----0-----0--10-0--9--|-0--7--0--5--0--3-----2--|-0-----0-----0--0--0--0--|

  E  E  E  E  E  E  E  E      E  E  E  E  E  E  E  E    E  E  E  E  E  E  E  E
|-------------------------||--------------0-----3--0--|-6--3--------------------|
|-------------------------||*-------0--------0--------|-------------------------|
|-5--5--6--6--7--7--8--8--||*----------0--------------|-------------------------|
|-0--0--0--0--0--0--0--0--||--2-----2-----2-----2-----|-2-----2-----2-----2--/--|

							 |1.-----------------------
  E  E  E  E  E  E  E  E    E  E  E  E  E.   E.  E     E  E  E  E  E.   S Q
|-------8--7--6--7--------|-------8--7--10---9---8---|-7-----------------------|
|-------0--0--0--0--------|-------0--0--0----0---0---|-0-----------------------|
|-------------------------|--------------------------|-------------------------|
|-9-----9-----9-----9-----|-9-----9-----9------9-----|-9-----10-9--8----9-9----|

--------------------------||2.-------------------------
  E  E  E  E  E.   S Q       E  E  E  E  E.   E.   E    Q     Q     Q     Q
|-------------------------||-7------------------------|------------------------|
|------------------------*||-0------------------------|------------------------|
|------------------------*||--------------------------|------------------------|
|-9-----10-9--8----9-9----||-9-----10-9--12---11---10-|-9-----9-----9-----9----|

[x2-----------------------------------------------------------------------------------
  E  E  E  E  S  S  E  E  E    S  S  E  E  E  E  E  E  E    E  E  E  E  S S E  E  E
|-0-----0-----0--------0-----|-0--------0-----0-----0-----|-7-----7-----7-5----------|
|-11-8--11-8--11-10-8--7--8--|-11-10-8--7--8--10-8--11-8--|-0--8--0--8--0---8--7--8--|
|----------------------------|----------------------------|-0-----0-----0------0-----|
|----------------------------|----------------------------|--------------------------|

---------------------------]
  S S E  E  E  E  E  E  E    E  E  E  E  E.   E.   E    E  E  E  E  E.   E.   E
|-7-5----------5-----7-----|-11/12--------------------|--------------------------|
|-0---8--7--8--0--8--0--8--|--------------------------|-------4--5---------------|
|-0------0-----0-----0-----|-8-/9---------------------|-------------4----0-------|
|--------------------------|-------2--2--5----4----3--|-2-----2-----2------2--2--|

  E  E  E  E  E.  E.  E    E  E  S E.  S E.  S E.   S S E  E  E  E  E  E  E
|------------------------|-------7-7---7-7---7-7--|-------------------------|
|-3-----2----------------|-------0-0---0-0---0-0--|-3-1-------1-------------|
|------------------------|------------------------|-----3--2-----3--0--2----|
|-2-----2--2--5---2---5--|-8-----9-9---9-9---9-9--|-------------------------|

				    6/8
  E  S S S S S S E  E  E  E   E  E  E  E  E  E   E  E  E  E  E  E   E  E  E  E  S S E
|---------------------------|----5--5-----3--3-|----6--6-----5--5-|----3--3-----8-8-8--|
|---------------------------|----6--6-----4--4-|----7--7-----6--6-|----4--4-----9-9-9--|
|(2)-0-2-3-2-0------0-------|-7--------5-------|-8--------7-------|-5--------10--------|
|--------------3-2-----3--0-|------------------|------------------|--------------------|

4/4
  S S E  E  E  E  E  E  E    E  S S S S S S E  E  E  E    E  E  E  E  E.   E.   E
|--------------------------|----------------------------|--------------------------|
|-3-1-------1--------------|----------------------------|-3-----3-----3----3----3--|
|-----3--2-----3--0--2-----|(2)-0-2-3-2-0------0--------|-2-----2-----2----2----0--|
|--------------------------|--------------3-2-----3--0--|-3-----2-----0----2----2--|

  E  E  E  E  E  E  E  E    E  E  E  E  E.   E.   E    W
|-------------------------|--------------------------|-1-/-----------------------|
|-6-----------------------|-3-----3-----3----3----3--|-1-/-----------------------|
|-5-----------------------|-2-----2-----2----2----2--|-1-/-----------------------|
|-6-----6--6--6--6--6--6--|-0-----0-----0----0----0--|-1-/-----------------------|

(P.M.)
[x2-------------------------------------------------][x2------------------------
  E  E  E  E  E  E  E  E     E  E  E  E  E  E  E  E    E  E  E  E  E  E  E  E
|--------------------------|-------------------------|-10----9-----------9-----|
|--------------------------|-------------------------|-------------10----------|
|--------------------------|-------------------------|-------------------------|
|-7--8--6--8--7--8--6------|-7--10-7--7--7--8--6-----|-7--8--6--8--7--8--6-----|

-------------------------][x2-------------------------------------------------]
  E  E  E  E  E  E  E  E    E  E  E  E  E  E  E  E    E  E  E  E  E  E  E  E
|-13----12----10----9-----|-13-13-10----------------|-------------------------|
|-------------------------|-10-10-10----------------|-------------------------|
|-------------------------|-10-10-10----------------|-------------------------|
|-7--10-7--7--7--8--6-----|-0-----0-----0--0--0--0--|<12>---0--0--0--0--0--0--|

  H           H              W          H  E  E  E  E  E  Q    Q     E  E  E
|-5------------------------|------/---|-------4--------------|-------13-13-10-----||
|-6------------------------|-/----/---|----------3-----------|-------10-10-10-----||
|-7-----------/------------|-/----/---|-------------2--------|-------10-10-10-----||
|-0-----------0------------|-0--------|-0--------------3--1--|-0-----------0------||

Login or Register to remove this ad.

1 comment on One-winged Angel

Video

Video: https://www.youtube.com/watch?v=fQ9HqamQP-o