Ads

On the Other Side of the Mountain (Final Fantasy VII) Guitar Tab

Submitted: Jun 11, 2010 by Daugreano

5
Average: 5 (1 vote)
Download | Listen
Game: Final Fantasy VII
Composer(s): Nobuo Uematsu
Style: Alternate picking, Transcription
Series: Final Fantasy

AutoScroll: Slow | Medium | Fast
Song: On The Other Side Of The Mountain
Game: Final Fantasy VII
Composer: Nobuo Uematsu
Tabbed by: Daugreano

Just a cheap version of this wonderful song...

Guitar: 

   E   E   E   E   E   E   E   E     E   E   E   E   E   E   E   E     E   E   E   E   E   E   E   E
E|---------------------------------|---------------------------------|---------------------------------|
B|---------------------------------|---------------------------------|---------------------------------|
G|---------------------------------|---------------------------------|---------------------------------|
D|-2-------0-----------------------|-----------------2-------0-------|---------------------------------|
A|-----------------3-------2-------|-2---3---2-----------------------|-3-------2-------2---3---2-------|
E|-----3-------3-------3-------3---|-------------3-------3-------3---|-----3-------3---------------3---|

   E   E   E   E   E   E   E   E     E   E   E   E   E   E   E   E     E   E   E   E   E   E   E   E
E|---------------------------------|---------------------------------|---------------------------------|
B|---------------------------------|---------------------------------|---------------------------------|
G|---------------------------------|---------------------------------|---------------------------------|
D|---------------------------------|---------------------------------|---------------------------------|
A|-0-------2-------3-------2-------|-2---3---2-------0-------2-------|-3-------2-------2---3---2-------|
E|-----1-------3-------3-------3---|-------------3-------1-------3---|-----3-------3---------------3---|

   E   E   E   E   E   E   E   E     E   E   E   E   E   E   E   E     E   E   E   E   E   E   E   E
E|---------------------------------|---------------------------------|---------------------------------|
B|---------------------------------|---------------------------------|---------------------------------|
G|---------------------------------|---------------------------------|---------------------------------|
D|-2-------0-----------------------|-----------------2-------0-------|---------------------------------|
A|-----------------3-------2-------|-2---3---2-----------------------|-3-------2-------2---3---2-------|
E|-----3-------3-------3-------3---|-------------3-------3-------3---|-----3-------3---------------3---|
                                                                             .
   E   E   E   E   E   E   Q      E   E   E   E   E   E   E   E     E   E   H
E|------------------------------|---------------------------------|----------------|
B|------------------------------|---------------------------------|----------------|
G|-----------------0------------|---------------------------------|----------------|
D|-2-------0--------------------|-------------0---2---------------|-0--------------|
A|-------------------------3----|---------3-----------------------|---------3------|
E|-----3-------3-------3--------|-----3---------------3---1---3---|-----3----------|

   E   E   E   E   E   E   E   E     E   E   E   E   E   E   E   E     E   E   E   E   E   E   E   E
E|---------------------------------|---------------------------------|---------------------------------|
B|---------------------------------|---------------------------------|---------------------------------|
G|---------0-------2---------------|-------------------------0-------|-2-------------------------------|
D|-3-----------------------2-------|-2---3---2-------3---------------|---------2-------2---3---2-------|
A|-----0-------0-------0-------0---|-------------4-------0-------0---|-----0-------0---------------4---|
E|---------------------------------|---------------------------------|---------------------------------|

   E   E   E   E   E   E   E   E     E   E   E   E   E   E   Q      Q    Q    E   E   E   E   
E|---------------------------------|------------------------------|---------------------------|
B|-------------------------1-------|------------------------------|---------------------------|
G|---------0-------2---------------|-3-------2-------0------------|-1----2----2---3---2---0---|
D|-3---------------------------0---|-----0-------0-------0---3----|---------------------------|
A|-----0-------0-------0-----------|------------------------------|---------------------------|
E|---------------------------------|------------------------------|---------------------------|

   E   E   E   E   E   E   E   E     E   E   E   E   E   E   E   E     E   E   E   E   E   E   E   E
E|---------------------------------|---------------------------------|---------------------------------|
B|---------------------------------|---------------------------------|---------------------------------|
G|-----------------0-------2-------|---------------------------------|-0-------2-----------------------|
D|-3---2---3-----------------------|-2-------2---3---2-------3-------|-----------------2-------2---3---|
A|-------------0-------0-------0---|-----0---------------4-------0---|-----0-------0-------0-----------|
E|---------------------------------|---------------------------------|---------------------------------|

   E   E   E   E   E   E   E   E     E   E   E   E   E   E   Q      Q    Q    Q    E---E---
E|---------------------------------|------------------------------|------------------------|
B|---------------------------------|------------------------------|------------------------|
G|-----------------0-------2-------|-3-------2-------0------------|------------------------|
D|-2-------3-----------------------|-----0-------0-------0---3----|------3----2----0---L---|
A|-----4-------0-------0-------0---|------------------------------|------------------------|
E|---------------------------------|------------------------------|------------------------|

Login or Register to remove this ad.