Off the Edge of Despair (Final Fantasy VII) Guitar Tab

Submitted: Jun 02, 2010 by Daugreano

0
Download | Listen
Game: Final Fantasy VII
Composer(s): Nobuo Uematsu
Style: Alternate picking, Transcription
Series: Final Fantasy

AutoScroll: Slow | Medium | Fast
Song: Off The Edge Of Despair
Game: Final Fantasy VII
Composer: Nobuo Uematsu
Tabbed By: Daugreano


Guitar:
                      .
  W        W         H      E   S  S    H     E   S  S  E   S  S    H     E   S  S  E   S  S
E|--------|--------|------------------|---------------------------|---------------------------|
B|--------|--------|------------------|---------------------------|---------------------------|
G|--------|--------|-5----------3--1--|-0---------0--1--3---1--0--|--------------0--1---0-----|
D|--------|--------|------------------|---------------------------|-3---------3------------3--|
A|--------|--------|------------------|---------------------------|---------------------------|
E|--------|--------|------------------|---------------------------|---------------------------|

   H     E   S  S  E   S  S    W        H     E   S  S  E   E     W        W   
E|---------------------------|--------|-------------------------|--------|--------|
B|---------------------------|--------|-------------------------|--------|--------|
G|-----------------0---------|--------|---------------------1---|-0------|--------|
D|-1---------1--3------3--1--|-0------|-----------0--1--3-------|--------|--------|
A|---------------------------|--------|-------------------------|--------|--------|
E|---------------------------|--------|-------------------------|--------|--------|

    .
   H      E   S  S    H     E   S  S  E   S  S    H     E   S  S  E   S  S    H     E   S  S  E   S  S  
E|------------------|---------------------------|---------------------------|---------------------------|
B|------------------|---------------------------|---------------------------|---------------------------|
G|-5----------3--1--|-0---------0--1--3---1--0--|--------------0--1---0-----|-----------------0---------|
D|------------------|---------------------------|-3---------3------------3--|-1---------1--3------3--1--|
A|------------------|---------------------------|---------------------------|---------------------------|
E|------------------|---------------------------|---------------------------|---------------------------|
                                                   .                 .
   W         H    E   S  S  S  S  S  S    Q   Q   H        W        H      E   S  S
E|--------|-----------------------------|----------------|--------|------------------|
B|--------|-----------------------------|----------------|--------|------------------|
G|--------|-----------------------------|----------------|--------|-3----------1--0--|
D|-0------|-----------1--0--1--3--1--0--|-1---0----------|--------|------------------|
A|--------|-----------------------------|---------3------|--------|------------------|
E|--------|-----------------------------|----------------|--------|------------------|
    .                              .                .                  .
   H      E   S  S    S  S  H     Q       W        H      E   S  S    H      E   S  S
E|------------------|-------------------|--------|------------------|------------------|
B|------------------|-------------------|--------|------------------|------------------|
G|------------------|-------0-----------|--------|-3----------1--0--|------------------|
D|-3-------------0--|-1--3--------------|--------|------------------|-3-------------0--|
A|------------3-----|-------------------|--------|------------------|------------3-----|
E|------------------|-------------------|--------|------------------|------------------|
                .                 .                  .                        .
   S  S  S  S  H        W        H      E   S  S    H      E   S  S    S  S  H
E|--------------------|--------|------------------|------------------|------------------|
B|--------------------|--------|------------------|------------------|------------------|
G|-------------0------|--------|-8----------7--5--|-3----------1--3--|-5--7--5----------|
D|-1--0--1--3---------|--------|------------------|------------------|------------------|
A|--------------------|--------|------------------|------------------|------------------|
E|--------------------|--------|------------------|------------------|------------------|
             .                           .                        .    
   W        H      E   S  S    W        H      E   S  S    S  S  H      E
E|--------|------------------|--------|------------------|------------------|
B|--------|------------------|--------|------------------|------------------|
G|--------|-8----------7--5--|-3------|------------1--3--|-5--7--5----------|
D|--------|------------------|--------|------------------|------------------|
A|--------|------------------|--------|------------------|------------------|
E|--------|------------------|--------|------------------|------------------|



Login or Register to remove this ad.