Ads

Off the Edge of Despair (Final Fantasy VII) Guitar Tab

Submitted: Jan 08, 2013 by JordanVS

5
Average: 5 (3 votes)
Download | Listen
Game: Final Fantasy VII
Composer(s): Nobuo Uematsu
Style: Arrangement, Fingerstyle
Series: Final Fantasy

AutoScroll: Slow | Medium | Fast
Off the Edge of Despair                             
Final Fantasy VII
Nobuo Uematsu
JordanVS


*Capo on 3rd fret 


     E  E  E  E  E  E  E  E     E  E  E  E  E  E  E  E   
E||--------------------------|--------------------------|
B||--------1-----------1-----|--------1-----------1-----|
G||--2-----------2-----------|--2-----------2-----------|
D||-----2--0--3-----2--0--3--|-----2--0--3-----2--0--3--|
A||--0-----------0-----------|--0-----------0-----------|
E||--------------------------|--------------------------|


    E  E  E  E  E  E  E  S S    E  E  E  E  E  S S E  S S  
|---5-----------------L--3-1-|--0--------------0-1-3--1-0-|
|----------------------------|----------------------------|
|*---------------------------|----------------------------|
|*-----2--0--3-----2--0--3---|-----2--0--3-----2---0--3---|
|---0-----------0------------|--0-----------0-------------|
|----------------------------|----------------------------|


  E  E  E  E  E  S S E  S S    E  E  E  E  E  S S E  S S  
-------------------0-1--0---|---------------------0------|
--3--------------3--------3-|--1--------------1-3----3-1-|
----------------------------|----------------------------|
-----2--0--3-----2---0--3---|-----2--0--3-----2---0--3---|
--0-----------0-------------|--0-----------0-------------|
----------------------------|----------------------------|


                           1.
  E  E  E  E  E  E  E  E     E  E  E  E  E  S S E  E   
--------------------------|------------------------1--|
--0-----------------------|-----------------0-1-3-----|
--------------------------|---------------------------|
-----2--0--3-----2--0--3--|-----2--0--3-----2---0--3--|
--0-----------0-----------|--0-----------0------------|
--------------------------|---------------------------|


  E  E  E  E  E  E  E  E     E  E  E  E  E  E  E  E     
--0-----------------------|---------------------------||
--------------------------|--------1-----------1------||
--------------------------|--2-----------2-----------*||
-----2--0--3-----2--0--3--|-----2--0--3-----2--0--3--*||
--0-----------0-----------|--0-----------0------------||
--------------------------|---------------------------||


2.
  E  E  E  E  E  S S S S S S    E  E  E  E  E  E  E  E   
-----------------------------|--------------------------|
-----------------1-0-1-3-1-0-|--1--0--------------------|
-----------------------------|--------2-----------------|
-----2--0--3-----2---0---3---|-----2--0--3-----2--0--3--|
--0-----------0--------------|--0-----------0-----------|
-----------------------------|--------------------------|


  E  E  E  E  E  E  E  E       E  E  E  E  E  E  E  S S  
--------------------------||---3-----------------L--1-0-|
--------1-----------1-----||----------------------------|
--2-----------2-----------||*---------------------------|
-----2--0--3-----2--0--3--||*-----0-----2-----0-----2---|
--0-----------0-----------||---------3-----------3------|
--------------------------||---3-----------3------------|


                           1.
  E  E  E  E  E  E  E  S S    S S E  E  E  E  E  E  E   
---------------------------|------0--L-----------------|
--3----------------------0-|--1-3----------------------|
-----------------------2---|---------------------------|
-----0-----2-----0-----2---|------2--0--3-----2--0--3--|
--------3-----------3------|--0------------0-----------|
--3-----------3------------|---------------------------|


                            2.
  E  E  E  E  E  E  E  E       S S S S E  E  E  E  E  E   
---------------------------||----------0-----------------|
--------1-----------1------||--1-0-1-3-------------------|
--2-----------2-----------*||----------------------------|
-----2--0--3-----2--0--3--*||------2---0--3-----2--0--3--|
--0-----------0------------||--0-------------0-----------|
---------------------------||----------------------------|


  E  E  E  E  E  E  E  E     E  E  E  E  E  E  E  S S  
--------------------------|---------------------------|
--------1-----------1-----|--1-----------------L--0---|
--2-----------2-----------|-------------------------2-|
-----2--0--3-----2--0--3--|-----------0-----------0---|
--0-----------0-----------|-----3--2--------3--2------|
--------------------------|--1-----------1------------|


  E  E  E  E  E  E  E  S S    S S E  E  E  E  E  E  E   
---------------------------|---------------------------|
---------------------------|----0----------------------|
--0----------------------0-|--2---2--L-----------------|
-----------0-----------3---|------2--0--3-----2--0--3--|
-----3--2--------3--2--5---|--0------------0-----------|
--1-----------1------------|---------------------------|


  E  E  E  E  E  E  E  E     E  E  E  E  E  E  E  S S  
--------------------------|---------------------------|
--------1-----------1-----|--1-----------------L--0---|
--2-----------2-----------|-------------------------2-|
-----2--0--3-----2--0--3--|-----------0-----------0---|
--0-----------0-----------|-----3--2--------3--2------|
--------------------------|--1-----------1------------|


                             ^                                                  
  E  E  E  E  E  E  E  E     Q    Q    Q    E  S S    S S E  E  E  E  E  E  E   
--------------------------|--------------------1-3-|--5-7-5--L-----------------|
--------------------------|--3---------------------|---------------------------|
--0-----------------------|--2---------------------|---------------------------|
-----------0-----------0--|--2---------------------|------2--0--3-----2--0--3--|
-----3--2--------3--2-----|------------------------|--0------------0-----------|
--1-----------1-----------|--1----1----1----1------|---------------------------|


  E  E  E  E  E  E  E  E     W                  
--------------------------|-------------------||
--------1-----------1-----|-------------------||
--2-----------2-----------|-------------------||
-----2--0--3-----2--0--3--|-------------------||
--0-----------0-----------|--0----------------||
--------------------------|-------------------||




Duration Legend
---------------
W - whole
H - half
Q - quarter
E - 8th
S - 16th
. - note dotted


Tablature Legend
----------------
L - tied note
^ - brush up
v - brush down
Login or Register to remove this ad.

1 comment on Off the Edge of Despair

Very nice!

5

Very nice!