Ads

Mining Town (Final Fantasy VII) Guitar Tab

Submitted: Sep 05, 2013 by JordanVS

5
Average: 5 (3 votes)
Download | Listen
Game: Final Fantasy VII
Composer(s): Nobuo Uematsu
Style: Arrangement, Fingerstyle, Natural harmonics, Tapped harmonics
Series: Final Fantasy

AutoScroll: Slow | Medium | Fast
Mining Town                                   
Corel Town
Final Fantasy VII
Nobuo Uematsu
JordanVS



*Capo on 7th Fret!


                  T                                                           
     Q    Q       Q       Q    Q    Q       Q    Q    Q       Q    Q    Q     
E||------------<>12----|--L--------------|-----------------|-----------------|
B||--------------------|-----------------|-----------------|-----------------|
G||--------------------|-----------------|-----------------|-----------------|
D||--0----2------------|--0----2---------|--0----2---------|--0----2---------|
A||-------0------------|-------0---------|-------0---------|-------0---------|
E||--3------------0----|--3--------------|--3---------0----|--3--------------|


               T                                                            
  Q    Q       Q       Q    Q    Q       Q    Q    Q       Q    Q    E  E   
------------<>12----|--L--------------|-----------------|------------------|
--------------------|-----------------|-----------------|------------1--3--|
--------------------|-----------------|-----------------|------------------|
--0----2------------|--0----2---------|--0----2---------|--0----2----------|
-------0------------|-------0---------|-------0---------|-------0----------|
--3------------0----|--3--------------|--3---------0----|--3---------------|


               T                                                             
  Q    Q       Q       Q    Q    E  E     Q    Q    Q       Q    Q    E  E   
--0---------<>12----|--L---------------|-----------------|------------------|
--------------------|------------3--1--|--0--------------|---------------0--|
--------------------|------------------|-----------------|------------2-----|
--0----2------------|--0----2----------|--0----2---------|--0----2----------|
-------0------------|-------0----------|-------0---------|-------0----------|
--3------------0----|--3---------------|--3---------0----|--3---------------|


  Q    E  E  E  E     E  E  E  E  Q       Q    E  E  E  E   
----------0--------|-----0-------------|----------0--------|
--1----1-----3-----|--1-----3----------|-------1-----3-----|
----------------2--|-------------------|----------------2--|
--0----2-----------|--0-----2----------|--0----2-----------|
-------0-----------|--------0----------|-------0-----------|
--3----------0-----|--3----------------|--3----------0-----|


                                    T                                          
  E  E  E  E  E  E     Q    Q       Q       Q    Q    E  E     Q    Q    Q     
-----0--------------|--0---------<>12----|--L---------------|-----------------|
--1-----3-----1--3--|--------------------|------------3--1--|--0--------------|
--------------------|--------------------|------------------|-----------------|
--0-----2-----------|--0----2------------|--0----2----------|--0----2---------|
--------0-----------|-------0------------|-------0----------|-------0---------|
--3-----------------|--3------------0----|--3---------------|--3---------0----|


  Q    Q    E  E     Q    E  E  E  E     E  E  E  E  Q       Q    E  E  E  E   
------------------|----------0--------|-----0-------------|----------0--------|
---------------0--|--1----1-----3-----|--1-----3----------|-------1-----3-----|
------------2-----|----------------2--|-------------------|----------------2--|
--0----2----------|--0----2-----------|--0-----2----------|--0----2-----------|
-------0----------|-------0-----------|--------0----------|-------0-----------|
--3---------------|--3----------0-----|--3----------------|--3----------0-----|


  E  E  E  E  Q       E  E  E  E  E  E     Q    E  E  Q       Q    Q    E  E   
-----0-------------|-----------0--3--2--|--0-------2--0----|------------------|
--1-----3----------|--------1-----------|-------3----------|--1----3-------0--|
-------------------|-----2--------------|------------------|------------------|
--0-----2----------|--0-----2-----------|--0----2----------|--0----2----------|
--------0----------|--------0-----------|-------0----------|-------0----------|
--3----------------|--3-----------0-----|--3---------------|--3---------0-----|


  |---3--|                                                                  
  Q    S S Q    Q       Q    Q    Q       Q    Q    Q       Q    Q    Q     
---------------------|------------0----|-----------------|-----------------|
--1----0-------------|--1--------------|--0--------------|-----------------|
---------3-2---------|--2--------------|--0--------------|--2--------------|
--0--------2---------|--0----2---------|--0----2---------|--4----2---------|
-----------0---------|-------0---------|-------0---------|-------0---------|
--3------------------|--3---------0----|--3--------------|--3---------0----|


  Q    Q    Q       E  E  E  E  E  E     Q    E  E  Q       Q    Q    E  E   
-----------------|-----------0--3--2--|--0-------2--0----|------------------|
-----------------|--------1-----------|-------3----------|--1----3-------0--|
-----------------|-----2--------------|------------------|------------------|
--0----2---------|--0-----2-----------|--0----2----------|--0----2----------|
-------0---------|--------0-----------|-------0----------|-------0----------|
--3--------------|--3-----------0-----|--3---------------|--3---------0-----|


  |---3--|                                                                  
  Q    S S Q    Q       Q    Q    Q       Q    Q    Q       Q    Q    Q     
---------------------|------------0----|-----------------|--0--------------|
--1----0-------------|--1--------------|--3--------------|--1--------------|
---------3-2---------|--2--------------|--4--------------|-----------------|
--0--------2---------|--0----2---------|--0----2---------|--0----2---------|
-----------0---------|-------0---------|-------0---------|-------0---------|
--3------------------|--3---------0----|--3--------------|--3---------0----|


  Q    Q    E  E     Q    Q    Q       Q    Q    E  E     Q    Q    Q     
---------------0--|--1--------------|------------0-----|-----------------|
------------3-----|-----------------|---------------3--|--1--------------|
------------------|-----------------|------------------|--0--------------|
--0----2----------|--0----3---------|--0----3----------|--0----2---------|
-------0----------|--0----1---------|--0----1----------|-------0---------|
--3---------------|------------1----|------------------|--3---------0----|


  Q    Q    E  E     Q    Q    Q       Q    Q    E  E     Q    Q    Q     
------------0--2--|--3--------------|------------2--0--|-----------------|
------------------|-----------------|------------------|--3--------------|
------------------|--0----0---------|-------0----------|-----------------|
--0----2----------|--2--------------|--2---------------|--0----4----0----|
-------0----------|-------2---------|-------2----------|-------2---------|
--3---------------|--3---------0----|--3---------------|--2--------------|


  Q    Q    E  E     Q    Q    Q       Q    Q    E  E     Q    Q    Q     
---------------0--|--1--------------|------------0-----|-----------------|
------------3-----|-----------------|---------------3--|--1--------------|
------------------|-----------------|------------------|-----------------|
--0----4----------|--0----3---------|--0----3----------|-------3---------|
-------2----------|--0----1---------|--0----1----------|--3----0---------|
--2---------------|------------1----|------------------|--3---------1----|


  Q    Q    E  E     Q    Q    Q       Q    Q    Q       Q    Q    Q     
------------------|-----------------|-----------------|-----------------|
---------------1--|--0--------------|-----------------|-----------------|
------------2-----|--0--------------|-----------------|-----------------|
-------3----------|--0----2---------|--0----2---------|--0----2---------|
--3----0----------|-------0---------|-------0---------|-------0---------|
--3---------------|--3---------0----|--3--------------|--3---------0----|


                       NH             
  Q    Q    Q          H.             
-----------------|--<>12------------||
-----------------|--<>12------------||
-----------------|------------------||
--0----2---------|------------------||
-------0---------|------------------||
--3--------------|------------------||




Duration Legend
---------------
W - whole
H - half
Q - quarter
E - 8th
S - 16th
. - note dotted
|-n-|  - n-tuplets


Tablature Legend
----------------
L - tied note
T - tapped harmonic
Login or Register to remove this ad.