Ads

Mining Town (Final Fantasy VII) Guitar Tab

Submitted: Apr 15, 2011 by Daugreano

0
Download | Listen
Game: Final Fantasy VII
Composer(s): Nobuo Uematsu
Style: 2 or more instruments, Fingerstyle, Natural harmonics, Transcription
Series: Final Fantasy

AutoScroll: Slow | Medium | Fast
Song: Mining Town
Game: Final Fantasy VII
composer: Nobuo Uematsu
Tabbed by: Daugreano 


Electric Guitar, Clean: 

   H.       H         Q      H.       H.       H.       H         Q      H.       H.
E|--------|----------<7>---|--------|--------|--------|----------<7>---|--------|--------|
B|--------|----------------|--------|--------|--------|----------------|--------|--------|
G|--------|----------------|--------|--------|--------|----------------|--------|--------|
D|--------|----------------|--------|--------|--------|----------------|--------|--------|
A|--------|----------------|--------|--------|--------|----------------|--------|--------|
E|--------|----------------|--------|--------|--------|----------------|--------|--------|

   H.       H         Q      H.       H.       H.       H.       H.       H.         
E|--------|----------<7>---|--------|--------|--------|--------|--------|--------|
B|--------|----------------|--------|--------|--------|--------|--------|--------|
G|--------|----------------|--------|--------|--------|--------|--------|--------|
D|--------|----------------|--------|--------|--------|--------|--------|--------|
A|--------|----------------|--------|--------|--------|--------|--------|--------|
E|--------|----------------|--------|--------|--------|--------|--------|--------|

   H.       H         Q      H.       H.       H.       H         Q      H.       H.
E|--------|----------<7>---|--------|--------|--------|----------<7>---|--------|--------|
B|--------|----------------|--------|--------|--------|----------------|--------|--------|
G|--------|----------------|--------|--------|--------|----------------|--------|--------|
D|--------|----------------|--------|--------|--------|----------------|--------|--------|
A|--------|----------------|--------|--------|--------|----------------|--------|--------|
E|--------|----------------|--------|--------|--------|----------------|--------|--------|

   H.       E   E   E   E   E   E     Q    E   E   Q      Q    Q.    E     E.   T T H
E|--------|-------------7---10--9---|-7--------9---7----|----------------|----------------|
B|--------|---------8------<12>-L---|------10-----------|-8----10----7---|-8--------------|
G|--------|-----9-------------------|-------------------|----------------|------11109-----|
D|--------|-------------------------|-------------------|----------------|----------------|
A|--------|-------------------------|-------------------|----------------|----------------|
E|--------|-------------------------|-------------------|----------------|----------------|

   H.       H.       H.       H.       E   E   E   E   E   E     Q    E   E   Q
E|--------|--------|--------|--------|-------------7---10--9---|-7--------9---7----|
B|--------|--------|--------|--------|---------8---------------|------10-----------|
G|--------|--------|--------|--------|-----9-------------------|-------------------|
D|--------|--------|--------|--------|-------------------------|-------------------|
A|--------|--------|--------|--------|-------------------------|-------------------|
E|--------|--------|--------|--------|-------------------------|-------------------|

   Q    Q.    E     E.   T T H       H         Q      H.       H.       H     E   E
E|----------------|----------------|-----------7----|--------|--------|-----------7---|
B|-8----10----7---|-8--------------|----------------|--------|--------|-------10------|
G|----------------|------11109-----|----------------|--------|--------|---------------|
D|----------------|----------------|----------------|--------|--------|---------------|
A|----------------|----------------|----------------|--------|--------|---------------|
E|----------------|----------------|----------------|--------|--------|---------------|

   H.       H     E   E     H.       H     E   E     H.       H     E   E     H.
E|-8------|-------7-------|--------|-------7---9---|-10-----|-------9---7---|--------|
B|--------|-----------10--|-8------|---------------|--------|---------------|-10-----|
G|--------|---------------|--------|---------------|--------|---------------|--------|
D|--------|---------------|--------|---------------|--------|---------------|--------|
A|--------|---------------|--------|---------------|--------|---------------|--------|
E|--------|---------------|--------|---------------|--------|---------------|--------|

   H     E   E     H.       H     E   E     H.       H     E   E     H.       H.
E|-----------7---|-8------|-------7-------|--------|---------------|--------|--------|
B|-------10------|--------|-----------10--|-8------|-----------8---|-7------|--------|
G|---------------|--------|---------------|--------|-------9-------|--------|--------|
D|---------------|--------|---------------|--------|---------------|--------|--------|
A|---------------|--------|---------------|--------|---------------|--------|--------|
E|---------------|--------|---------------|--------|---------------|--------|--------|

   H.       H.
E|--------|--------|
B|--------|--------|
G|--------|--------|
D|--------|--------|
A|--------|--------|
E|--------|--------|





Acoustic Guitar: 

   H.       Q    Q    Q      Q    H       Q    Q    Q      Q    H       Q    Q    Q
E|--------|----------------|------------|----------------|------------|----------------|
B|--------|------0---------|------0-----|------0---------|------0-----|------0---------|
G|--------|-2--------------|-2----------|-2--------------|-2----------|-2--------------|
D|--------|-0----2---------|-0----2-----|-0----2---------|-0----2-----|-0----2---------|
A|--------|-----------2----|------------|-----------2----|------------|-----------2----|
E|--------|----------------|------------|----------------|------------|----------------|

   Q    H       Q    Q    Q      Q    Q    E   E     Q    Q    Q      Q    Q    E   E
E|------------|----------------|-----------3---5---|-7----L---------|-----------5---3---|
B|------0-----|------0---------|------0------------|------0---------|------0------------|
G|-2----------|-2--------------|-2-----------------|----------------|-2-----------------|
D|-0----2-----|-0----2---------|-0----2------------|-7----2---------|-0----2------------|
A|------------|-----------2----|-------------------|-5---------2----|-------------------|
E|------------|----------------|-------------------|----------------|-------------------|

                                             PM------------------------>           PM------------------|
   Q    Q    Q      Q    Q    E   E     Q    E   E   E   E     E   E   H       E   E   E   E   E   E
E|-7----L---------|-----------0---2---|-3----3---7---5---0---|-3---7---5-----|-----0---3---7---5---0---|
B|------0---------|------0------------|----------------------|---------------|-------------------------|
G|----------------|-2-----------------|----------------------|---------------|-------------------------|
D|-7----2---------|-0----2------------|----------------------|---------------|-------------------------|
A|-5---------2----|-------------------|----------------------|---------------|-------------------------|
E|----------------|-------------------|----------------------|---------------|-------------------------|

----------->
   E   E   Q    E   E     Q    Q    Q      Q    Q    E   E     Q    Q    Q      Q    Q    E   E
E|-3---7---5----3---5---|-7----L---------|-----------5---3---|-2----L---------|-----------0---2---|
B|----------------------|------0---------|------0------------|------0---------|------0------------|
G|----------------------|----------------|-2-----------------|-2--------------|-2-----------------|
D|----------------------|-7----2---------|-0----2------------|-0----2---------|-0----2------------|
A|----------------------|-5---------2----|-------------------|-----------2----|-------------------|
E|----------------------|----------------|-------------------|----------------|-------------------|

        PM------------------------>           PM---------------------------->
   E    E   E   E   E     E   E   H       E   E   E   E   E   E     E   E   H
E|-3----3---7---5---0---|-3---7---5-----|-----0---3---7---5---0---|-3---7---5-----|
B|----------------------|---------------|-------------------------|---------------|
G|----------------------|---------------|-------------------------|---------------|
D|----------------------|---------------|-------------------------|---------------|
A|----------------------|---------------|-------------------------|---------------|
E|----------------------|---------------|-------------------------|---------------|

   Q    Q    Q      Q    H       Q    Q    Q      Q    H       Q    Q    Q      Q    H     
E|----------------|------------|----------------|------------|----------------|------------|
B|------0---------|------0-----|------0---------|------0-----|------0---------|------0-----|
G|-2--------------|-2----------|-2--------------|-2----------|-2--------------|-2----------|
D|-0----2---------|-0----2-----|-0----2---------|-0----2-----|-0----2---------|-0----2-----|
A|-----------2----|------------|-----------2----|------------|-----------2----|------------|
E|----------------|------------|----------------|------------|----------------|------------|


   Q    Q    Q      Q    H       Q    Q    Q      Q    H       Q    Q    Q      Q    H     
E|----------------|------------|----------------|------------|----------------|------------|
B|------0---------|------0-----|------0---------|------0-----|------0---------|------0-----|
G|-2--------------|-2----------|-2--------------|-2----------|-2--------------|-2----------|
D|-0----2---------|-0----2-----|-0----2---------|-0----2-----|-0----2---------|-0----2-----|
A|-----------2----|------------|-----------2----|------------|-----------2----|------------|
E|----------------|------------|----------------|------------|----------------|------------|


   Q    Q    Q      Q    H       Q    Q    Q      Q    H       Q    Q    Q      Q    H     
E|----------------|------------|----------------|------------|----------------|------------|
B|------0---------|------0-----|------0---------|------0-----|------1---------|------1-----|
G|-2--------------|-2----------|-2--------------|-2----------|-2--------------|-2----------|
D|-0----2---------|-0----2-----|-0----2---------|-0----2-----|-2----3---------|-2----3-----|
A|-----------2----|------------|-----------2----|------------|-----------3----|------------|
E|----------------|------------|----------------|------------|----------------|------------|


   Q    Q    Q      Q    H       Q    Q    Q      Q    H       Q    Q    Q      Q    H     
E|----------------|------------|----------------|------------|----------------|------------|
B|------0---------|------0-----|-0----3---------|-0----3-----|------2---------|------2-----|
G|-2--------------|-2----------|----------------|------------|-2--------------|-2----------|
D|-0----2---------|-0----2-----|-0----4---------|-0----4-----|------4---------|------4-----|
A|-----------2----|------------|-----------2----|------------|-4---------0----|-4----------|
E|----------------|------------|----------------|------------|----------------|------------|


   Q    Q    Q      Q    H       Q    Q    Q      Q    H       Q    Q    Q      Q    H     
E|----------------|------------|----------------|------------|----------------|------------|
B|------1---------|------1-----|------1---------|------1-----|------0---------|------0-----|
G|-2--------------|-2----------|-0--------------|-0----------|-2--------------|-2----------|
D|-2----3---------|-2----3-----|-0----2---------|-0----2-----|-0----2---------|-0----2-----|
A|-----------3----|------------|-----------3----|------------|-----------2----|------------|
E|----------------|------------|----------------|------------|----------------|------------|


   Q    Q    Q      Q    H     
E|----------------|------------|
B|------0---------|------0-----|
G|-2--------------|-2----------|
D|-0----2---------|-0----2-----|
A|-----------2----|------------|
E|----------------|------------|


Login or Register to remove this ad.