Ads

Mark of the Traitor (Final Fantasy VII) Guitar Tab

Submitted: Oct 09, 2012 by JordanVS

5
Average: 5 (2 votes)
Download | Listen
Game: Final Fantasy VII
Composer(s): Nobuo Uematsu
Style: Arrangement, Fingerstyle, Percussion
Series: Final Fantasy

AutoScroll: Slow | Medium | Fast
Mark of the Traitor                               
North Corel Theme 
Final Fantasy VII
Nobuo Uematsu
JordanVS


*Capo on the 1st fret 



     E  S S E  E  E  S S E  S S    E  S S E  S S S S S S S S S S  
E||-----------------------------|--------------------------------|
B||-----3-2-3------------0--3-2-|--3----0-2--0-----0---0---------|
G||-----2------------0-2--------|-----2--------2-0---------------|
D||-----2------x--x--2----------|--------------------4---2-4-2-0-|
A||-----0------x--x--2----------|--0---------2-------------------|
E||--0--------------------------|--------------------------------|


  E  S S E  E  E  S S E  S S    E  S S E  S S S S S S S S S S  
-----------------------------|--------------------------------|
-----3-2-3------------0--3-2-|--3----0-2--0-----0---0---------|
-----2------------0-2--------|-----2--------2-0---------------|
-----2------x--x--2----------|--------------------4---2-------|
-----0------x--x--2----------|--0---------2-----------5-4-2-4-|
--0--------------------------|--------------------------------|


     ^                                                  
  E  E  E  E  E  E  E  E     E  E  E  E  E  E  S S S S  
--------------------------|----------------------------|
-----0-----0--------------|----------------------------|
-----2--2-----0-----------|----------------------------|
-----2-----------4--2--0--|--------------------2-4-2-0-|
-----0-----------2--------|--4--7--5--2--0-------------|
--0-----------------------|--5--------------3--2---0---|


  E  S S E  E  E  S S E  S S    E  S S E  S S S S S S S S S S  
-----------------------------|--------------------------------|
-----3-2-3------------0--3-2-|--3----0-2--0-----0---0---------|
-----2------------0-2--------|-----2--------2-0---------------|
-----2------x--x--2----------|--------------------4---2-4-2-0-|
-----0------x--x--2----------|--0---------2-------------------|
--0--------------------------|--------------------------------|


     ^                                                  
  E  E  E  E  E  E  E  E     E  E  E  E  E  E  S S S S  
--------------------------|----------------------------|
-----0-----0--------------|----------------------------|
-----2--2-----0-----------|----------------------------|
-----2-----------4--2--0--|--------------------2-4-2-0-|
-----0-----------2--------|--4--7--5--2--0-------------|
--0-----------------------|--5--------------3--2---0---|


  E  S S E  E  E  S S E  S S    E  S S E  S S S S S S S S S S  
-----------------------------|--------------------------------|
-----3-2-3------------0--3-2-|--3----0-2--0-----0---0---------|
-----2------------0-2--------|-----2--------2-0---------------|
-----2------x--x--2----------|--------------------4---2-4-2-0-|
-----0------x--x--2----------|--0---------2-------------------|
--0--------------------------|--------------------------------|


  E  S S E  E  E  S S E  E     E  S S H.            
----------------------------|----------------------|
----------------------------|----------------------|
-------0-2--0-------0-------|----------------------|
-----0---2-----4--2---4--0--|---------0------------|
-------0----------2---------|--4--2-4-2------------|
--0-------------------------|--5-------------------|


  E  S S E  E  E  S S E  E     E  S S H.            
----------------------------|----------------------|
-------1-3--1--0----1-0-----|----------------------|
-----0------------2------0--|---------0------------|
-----2----------------------|--4--2-4--------------|
-----0------------2---------|--5------2------------|
--0-------------------------|----------------------|


     ^                                                                          
  E  S S E  E  Q    S S S S    E  S S E  E  H           E  Q.     E  E.  S S S  
-------1-3--1--0----L-------|------------------------|-----5---------7---------|
-----1----------------------|-------2-4--2--1--------|-----5---------7---------|
-----2----------------2-----|-----1------------------|-----7---------9---2-----|
-----2------------------0---|-----2------------------|-----7---------9-----0---|
-----0--------------------2-|-----0------------------|-----------------------2-|
--0-------------------------|--0---------------------|--0----------------------|


  E  Q.     E  Q.        S S S S S S S S H           S S S S S S S S H          
-----5---------7------|---------------------------|------0-2-3-5-7-8-7--------||
-----5---------7------|--------------0-1-0--------|--1-3----------------------||
-----7---------9------|----------0-2--------------|--0------------------------||
-----7---------9------|----0-2-4------------------|--0------------------------||
----------------------|--3------------------------|---------------------------||
--0-------------------|--3------------------------|---------------------------||




Duration Legend
---------------
W - whole
H - half
Q - quarter
E - 8th
S - 16th
. - note dotted



Tablature Legend
----------------
L - tied note
^ - brush up
v - brush down
xx- Percurssion
Login or Register to remove this ad.

1 comment on Mark of the Traitor

This is fun to play, but I

5

This is fun to play, but I changed it around to make it more like I hear the song. For example.

     E  S S E  E  E  S S E  S S    E  S S E  S S S S S S S S S S  
E||-----------------------------|--------------------------------|
B||-----3-2-3------------0--3-2-|--3----0-2--0-----0---0---------|
G||-----2------------0-2--------|-----2--------2-0---------------|
D||--2--2------x--x--2----------|--------------------4---2-4-2-0-|
A||-----0------x--x--2----------|--0---------2-------------------|
E||-----0-----------------------|--------------------------------|


  E  S S E  E  E  S S E  S S    E  S S E  S S S S S S S S S S  
-----------------------------|--------------------------------|
-----3-2-3------------0--3-2-|--3----0-2--0-----0---0---------|
-----2------------0-2--------|-----2--------2-0---------------|
--2--2------x--x--2----------|--------------------4---2-------|
-----0------x--x--2----------|--0---------2-----------5-4-2-4-|
-----0-----------------------|--------------------------------|


     ^                                                  
  E  E  E  E  E  E  E  E   
--------------------------|
-----0-----0--------------|
-----2--2-----0-----------|
-----2-----------4--2--0--|
--5--0-----------2--------|
-----0--------------------|