Ads

Mark of a Traitor (Final Fantasy VII) Guitar Tab

Submitted: Jul 12, 2009 by Brainsick Fungus

5
Average: 5 (1 vote)
Download | Listen
Game: Final Fantasy VII
Composer(s): Nobuo Uematsu
Style: Transcription
Series: Final Fantasy

AutoScroll: Slow | Medium | Fast
Mark of a Traitor	
Final Fantasy 7
Composed by Nobuo Uematsu
Tabbed by Brainsick Fungus 
2/20/09



e-11-10-11--4-6-8--11-10-11-6-8-10--8-6---8---8---------------------------------
B---------------------------------------9---8---6-------------------------------
G-------------------------------------------------------------------------------
D------------------------------------------------------------------------------- x2
A-------------------------------------------------------------------------------
E-------------------------------------------------------------------------------

e--------------------------------11-10-11--4-6-8--11-10-11-6-8-10--8-6-4-8---8--
B-1---1--------------------------------------------------------------------8---6
G---3---1-0---------------------------------------------------------------------
D-----------3-1-0-3-1----------------------------------------------------------- x2
A---------------------3-1-------------------------------------------------------
E-------------------------4-3-1-------------------------------------------------

e-------------------------------9-11-9-8-6-9-8---------------14-16-14-13--------
B-----------------------------9----------------9-8-6-8-9--14--------------------
G---1-3-1-0---1-0---------------------------------------------------------------
D-1---------3-----1-0---0-1-----------------------------------------------------
A---------------------3---------------------------------------------------------
E-------------------------------------------------------------------------------

e----10-12-10-9--------------------------------------18-20-21-20----------------
B-10---------------------------1-2-1--------18-20-21----------------------------
G------------------------0-1-3--------18-20-------------------------------------
D--------------------1-3--------------------------------------------------------
A------------------4------------------------------------------------------------
E-------------------------------------------------------------------------------
Login or Register to remove this ad.