Ads

Mako Reactor (Final Fantasy VII) Bass/Guitar Tab

Submitted: Apr 20, 2010 by khensel (Last updated: Apr 20, 2010)

5
Average: 5 (1 vote)
Download | Listen
Game: Final Fantasy VII
Composer(s): Nobuo Uematsu
Style: Arrangement
Series: Final Fantasy

This song is also called Makou Reactor

AutoScroll: Slow | Medium | Fast

Final Fantasy 7 - Makou Reactor
Composed by Nobuo Uematsu
Tabbed by brningpyre

- Arranged for Guitar (6-string) and Bass (4-string) from piano sheet music, with some changes/fixes.
- Cm = C-minor chord, Bfm = B-flat-minor chord
- r = rest for this bar.
- Notes in (xx) are played on 2nd playthough
- If you only have 21 frets on your guitar (as I do), you have to bend up to 23.
- 80 bpm

[A] (Play this section with an echo, delay = 750ms or 3/4 of a second (guitar-only))

G|-----------------|-----------------|-----------------|-----------------
D|-----------------|-----------------|-----------------|-----------------
A|-3-----333---3---|-3---------------|-3-----333---3---|-3---------------
E|-----------------|-----------------|-----------------|-----------------
   1 + 2 + 3 + 4 +   1 + 2 + 3 + 4 +   1 + 2 + 3 + 4 +   1 + 2 + 3 + 4 +


G|-----------------|-----------------|-----------------|-----------------
D|-----------------|-----------------|-----------------|-----------------
A|-3---3---3---3---|-3---3---3---3---|-3---3---3---3---|-3---3---3---3---
E|-----------------|-----------------|-----------------|-----------------
   1 + 2 + 3 + 4 +   1 + 2 + 3 + 4 +   1 + 2 + 3 + 4 +   1 + 2 + 3 + 4 +

e|(12)-----------------15----------|r|---------------------15------13--|-18------------------------------
B|(13)-----------------------------|r|---------------------------------|---------14----------------------
G|(14)-----12--13--15--------------|r|---------12--13--15--------------|---------------------------------
D|---------------------------------|r|---------------------------------|---------------------------------
A|---------------------------------|r|---------------------------------|---------------------------------
E|---------------------------------|r|---------------------------------|---------------------------------
   1   +   2   +   3   +   4   +       1   +   2   +   3   +   4   +     1   +   2   +   3   +   4   +


G|-----------------|-----------------|-----------------|-----------------
D|-----------------|-----------------|-----------------|-----------------
A|-3---3---3---3---|-3---3---3---3---|-3---3---3---3---|-3---3---3---3---
E|-----------------|-----------------|-----------------|-----------------
   1 + 2 + 3 + 4 +   1 + 2 + 3 + 4 +   1 + 2 + 3 + 4 +   1 + 2 + 3 + 4 +

e|---------------------15------12--|r|---------------------------------|---------------------------------
B|---------------------------------|r|---------------------14------12--|-13------------------------------
G|---------12--13--15--------------|r|-------------12--13--------------|---------------------------------
D|---------------------------------|r|---------15----------------------|---------------------------------
A|---------------------------------|r|---------------------------------|---------------------------------
E|---------------------------------|r|---------------------------------|---------------------------------
   1   +   2   +   3   +   4   +       1   +   2   +   3   +   4   +     1   +   2   +   3   +   4   +


[B]
G|-----------------|-----------------|-----------------|-----------------|
D|-----------------|-----------------|-----------------|-----------------|
A|-3-----333---3---|-3---------------|-3-----333---3---|-3---------------|
E|-----------------|-----------------|-----------------|-----------------|
   1 + 2 + 3 + 4 +   1 + 2 + 3 + 4 +   1 + 2 + 3 + 4 +   1 + 2 + 3 + 4 +
   
 |-Cm--Cm--Bfm-Bfm-|-Cm--Cm--Bfm-Bfm-|-Cm--Cm--Bfm-Bfm-|-Cm--Cm--Bfm-Bfm-| (Chords)
   1 + 2 + 3 + 4 +   1 + 2 + 3 + 4 +   1 + 2 + 3 + 4 +   1 + 2 + 3 + 4 +


[C]
G|-0---15--14--14--|-0---15--14--14--|-0---15--14--14--|-0---15--15--14--|
D|-----17--15--15--|-----17--15--15--|-----17--15--15--|-----17--17--15--|
A|-----------------|-----------------|-----------------|-----------------|
E|-----------------|-----------------|-----------------|-----------------|
   1 + 2 + 3 + 4 +   1 + 2 + 3 + 4 +   1 + 2 + 3 + 4 +   1 + 2 + 3 + 4 +

e|-----18--17~~~~~~|-----13--15~~~~~~|-----18--17--13--|-15~~~~--15--14--|
B|-----------------|-----------------|-----------------|---------15--15--|
G|-----------------|-----------------|-----------------|---------15--14--|
D|-----------------|-----------------|-----------------|-----------------|
A|-----------------|-----------------|-----------------|-----------------|
E|-----------------|-----------------|-----------------|-----------------|
   1 + 2 + 3 + 4 +   1 + 2 + 3 + 4 +   1 + 2 + 3 + 4 +   1 + 2 + 3 + 4 +


G|-0---15--14--14--|-0---15--14--14--|-0---15--14--14--|-0---15--15--14--|
D|-----17--15--15--|-----17--15--15--|-----17--15--15--|-----17--17--15--|
A|-----------------|-----------------|-----------------|-----------------|
E|-----------------|-----------------|-----------------|-----------------|
   1 + 2 + 3 + 4 +   1 + 2 + 3 + 4 +   1 + 2 + 3 + 4 +   1 + 2 + 3 + 4 +

e|-15--18--17~~~~~~|-----13--15~~~~~~|-----18--17--20--|-18------15--14--|
B|-15--------------|-----------------|-----------------|---------15--15--|
G|-15--------------|-----------------|-----------------|---------15--14--|
D|-----------------|-----------------|-----------------|-----------------|
A|-----------------|-----------------|-----------------|-----------------|
E|-----------------|-----------------|-----------------|-----------------|
   1 + 2 + 3 + 4 +   1 + 2 + 3 + 4 +   1 + 2 + 3 + 4 +   1 + 2 + 3 + 4 +


[D]
G|-----15--14--14--|-----15--14--14--|-----15--14--14--|-----15--15--14--|
D|-----15--14--14--|-----15--14--14--|-----15--14--14--|-----15--15--14--|
A|-----------------|-----------------|-----------------|-----------------|
E|-3---------------|-3---------------|-3---------------|-3---------------|
   1 + 2 + 3 + 4 +   1 + 2 + 3 + 4 +   1 + 2 + 3 + 4 +   1 + 2 + 3 + 4 +

e|-13--21--20~~~~~~|-----17--18~~~~~~|-----21--20--17--|-18------13--12--|
B|-14--------------|-----------------|-----------------|---------14--13--|
G|-15--------------|-----------------|-----------------|---------15--14--|
D|-----------------|-----------------|-----------------|-----------------|
A|-----------------|-----------------|-----------------|-----------------|
E|-----------------|-----------------|-----------------|-----------------|
   1 + 2 + 3 + 4 +   1 + 2 + 3 + 4 +   1 + 2 + 3 + 4 +   1 + 2 + 3 + 4 +


G|-----15--14--14--|-----15--14--14--|-----15--14--14--|-----15--15--14--|
D|-----15--14--14--|-----15--14--14--|-----15--14--14--|-----15--15--14--|
A|-----------------|-----------------|-----------------|-----------------|
E|-3---------------|-3---------------|-3---------------|-3---------------|
   1 + 2 + 3 + 4 +   1 + 2 + 3 + 4 +   1 + 2 + 3 + 4 +   1 + 2 + 3 + 4 +

e|-13--21--20~~~~~~|-----17--18~~~~~~|-----21--20--23--|-21------13--17--|
B|-14--------------|-----------------|-----------------|---------14--17--|
G|-15--------------|-----------------|-----------------|---------15--17--|
D|-----------------|-----------------|-----------------|-----------------|
A|-----------------|-----------------|-----------------|-----------------|
E|-----------------|-----------------|-----------------|-----------------|
   1 + 2 + 3 + 4 +   1 + 2 + 3 + 4 +   1 + 2 + 3 + 4 +   1 + 2 + 3 + 4 +


Login or Register to remove this ad.