Login or Register to remove this ad.

Main Theme (nosebloods version) (Final Fantasy VII) Guitar Tab

Submitted: Oct 24, 2009 by auriplane (Last updated: Oct 24, 2009)

4.869565
Average: 4.9 (23 votes)
Download | Listen
Game: Final Fantasy VII
Composer(s): Nobuo Uematsu
Style: Arrangement, Artificial harmonics, Fingerstyle, Natural harmonics, Percussion, Tapping, Transcription, Tremolo
Series: Final Fantasy

Click here for a video example.

AutoScroll: Slow | Medium | Fast
            Final Fantasy VII - Main Theme (nosebloods version)
                       Composed by Nobuo Uematsu

                 Arranged and performed by Nosebloods
             http://www.youtube.com/watch?v=lnxwVL5HeQY

                Tabbed by auriplane ([email protected])
                    Based on the video linked above


Standard tuning.  This is supposed to be an exact transcription of the
arrangement nosebloods made of this song, so if there are any errors in
the tab, it's my fault, and please let me know!


     ^                       ^
     H        Q     Q        H        H           Q    Q    Q     Q
e||--0--------2s----4----|--11--------9--------|-------0----2s----4----|
B||--0-------------------|---9-----------------|-------0---------------|
G||--1-------------------|---9-----------------|-----------------------|
D||--2-------------------|--11-----------------|--2--------------------|
A||----------------------|---------------------|-----------------------|
E||----------------------|---------------------|-----------------------|


     NH      NH      NH     NH         NH                       ^
     Q       Q       Q      Q          Q    Q    Q     Q        Q.      S   S H
------------------<>12-----------|--<>12---------2s----4----|--11------12p-11-9--------|
--<>12------------<>12----<>7----|--<>12---------0----------|---9----------------------|
--------------------------<>7----|--------------------------|---9----------------------|
----10-------7----<>12-----------|----------2---------------|--11----------------------|
----------<>12-------------------|--------------------------|--------------------------|
---------------------------------|--------------------------|--------------------------|


                          ^                      ^        ^    ^
  Q    Q    Q     Q       Q    Q    Q    Q       H        Q    Q
-------0----2s----4----|--7----5--------------|--4--------4----3----|
-------0---------------|--5---------5----7----|--4--------4----3----|
-----------------------|--6-------------------|--4--------4----3----|
--2--------------------|--7-------------------|--6--------6----5----|
-----------------------|----------------------|---------------------|
-----------------------|----------------------|---------------------|


  ^                        ^
  Q    Q      Q    Q       Q.     E  E  E  E   E     E  E  E  E  E  E  E  E
--2----4----5g7----4----|--2----------------------|--------------------2-----|
--2---------------------|--3---------------3p--0--|--5--------5--4--------4--|
--2---------------------|--2---------2------------|--------4--------2--------|
--4---------------------|--0------0-----0---------|--4-----------4-----------|
------------------------|-------------------------|--2--2--------2-----------|
------------------------|-------------------------|--------------------------|


  ^
  E  E  E  E  E  E  E  E      E  E  E  E  E  E  E  E     E  E  E  E  E  E  E  E
--0-----------2-----4-----|--11-----------9-----------|--------0-----2-----4-----|
--0--------0-----0-----0--|------------9-----9--------|--------0--------0-----0--|
--1-----1-----------------|---------9-----------9-----|-----------1--------------|
--2--2--------------------|------9-----------------9--|-----2--------------------|
--2-----------------------|---------------------------|--------------------------|
--0-----------------------|---9-----------------------|--0-----------------------|


                            ^
  E  E  E  E  E  E  Q       E  E  E  E  E  E  E  E      E  E  E   S   S E  E  E  E
--7-----5----------------|--0-----------2-----4-----|--11--------12p-11-9-----------|
-----5-----5--5-----7----|--0--------0-----0-----0--|----------------------9--------|
-----------------7-------|--1-----1-----------------|---------9---------------9-----|
-------------------------|--2--2--------------------|------9---------------------9--|
--3-----------5----------|--2-----------------------|-------------------------------|
-------------------------|--0-----------------------|---9---------------------------|


                             ^                     ^
  E  E  E  E  E  E  E  E     H        Q    Q       E  E  E  E  E  E  E  E
--------0-----2-----4-----|--7--------5---------|--4-----------------2-----|
--------0--------0-----0--|--5------------------|--2--------2-----------2--|
-----------1--------------|--6-------------6----|--2-----2-----------------|
-----2--------------------|--7------------------|-----2-----------2--------|
--------------------------|---------------------|--------------------------|
--0-----------------------|---------------------|--2-----------2-----------|


  E  E  E  S  S E  E  E  E     E  E  E  E  E  E  E  E     Q    Q      Q    Q
-----------2p-0-------------|--0-----------------------|-------4----4g5----4----|
--5-------------4--------4--|--0-----0-----------0-----|------------------------|
--------2-------------2-----|--------------------------|------------------------|
-----4-------------4--------|--2--4-----4--2--4-----4--|--2---------------------|
--2-------------2-----------|--------------------------|------------------------|
----------------------------|--0-----------------------|------------------------|


  E  E  E  E  E  E  E  E     E  E  E  E  E  E  E  E     E  E  E  E  E  E  E  E
--4--2--2--4--5-----------|--------------4-----2-----|--0--2--4-----2-----4-----|
-----2--2--2--2-----------|--------------2-----2-----|--0--------0--0--0-----0--|
-----2--2--2--2-----------|--------------2-----2-----|--1-----------1-----------|
--------2-----------2-----|--------2-----------2-----|--------------------------|
-----4-----4-----4-----4--|-----4-----4-----4-----4--|--------------------------|
--2-----------2-----------|--2-----------2-----------|--0-----------0-----------|


  E  E  E  E  E  E  Q       E  E  E  E  E  E  E  E     E  E  E  E  E  E  Q
-------------------------|--7--5--7--9--x-----------|-------------------------|
--4-----------2-----2----|--5--5--------x--5--L-----|--------------5-----7----|
--------4-----4----------|--6--6--------x--6--L--6--|--------6--------6-------|
--6--6-----6--6--6-------|--7--7--------x--7--L-----|-----7-----7--7----------|
-------------------------|--0-----------x--0--L-----|--0-----------0----------|
--0----------------------|--------------x-----------|-------------------------|


  ^
  E  E  E  E  E  E  E  E     E  E  E  E  E  E  E  E     E  E  E  E  E  E  E  E
--4-----------------4-----|--------------x--4--5--4--|--4--2--2--4--5-----------|
--5-----------5-----------|--4--------5--x-----------|-----2--2--2--2-----------|
--4-----4-----------4-----|--------4-----x-----------|-----2--2--2--2-----------|
--6--6-----6-----6-----6--|-----6--------x-----------|--------2-----------2-----|
--------------------------|--------------x-----------|-----4-----4-----4-----4--|
--0-----------0-----------|--0--------0--x-----------|--2-----------2-----------|


  E  E  E  E  E  E  E  E     E  E  E  E  E  E  E  E     E  E  E  E  E  E  E  E
--------------4-----2-----|--------4-----------4-----|--------------------------|
--------------2-----2-----|--5--7--------7-----------|--4-----------5--5--5-----|
--------------2-----2-----|-----------4-----4-----4--|--------4-----4--4--4-----|
--------2-----------2-----|--6-----------------------|-----6--------6--6--6-----|
-----4-----4-----4-----4--|--4-----------4-----------|--4--------4--4--4--4--0--|
--2-----------2-----------|--------------------------|--------------------------|


   E   E   E    E   Q    Q          Q    Q    E   E   E   E     E  E  E  E   Q     E  E
--12--11--11s---9---9---------|-------------------9--11---9--|--7------------7-----7--7--|
--14--12--12s--10--10---------|------------------10--10--10--|-----7--7--9--10----10--9--|
------------------------------|------------------------------|--8-----8------8-----8--8--|
-------------------------9----|--9g11------------------------|-----7--7--7---7-----7--7--|
---0--------------------------|----------0----L--------------|---------------------------|
------------------------------|------------------------------|--7------------7-----7--7--|


                           ^
  Q    E  E  E  E  Q       E  E  E  E  E  E  E  E      E  E  E  E  E  E  E  E
--7----7--7--7--7--7----|--0-----------2-----4-----|--11-----------9-----------|
--7----7--7-------------|--0-----0--------0-----0--|------------9-----9--------|
--8----8--9--8--8--8----|--1--1-----1--------------|---------9-----------9-----|
--7----7--7--7--7--7----|--2-----------------------|------9-----------------9--|
------------------------|--2-----------------------|---------------------------|
--7----7--7--7--7--7----|--0-----------------------|---9-----------------------|


       ^                                               ^
  Q    E  E  E  E  E  E     E  E  E  E  E  E  E  E     E  E  E  E  E  E  E  E
-------0-----2-----4-----|--7-----5-----0-----2-----|--0-----------2-----4-----|
-------0--0-----0-----0--|-----5-----5-----3-----3--|--0-----0--------0-----0--|
-------1-----------------|--0-----------------------|--1--1-----1--------------|
-------2-----------------|--------------0-----------|--2-----------------------|
-------2-----------------|--3-----------------------|--2-----------------------|
--0----0-----------------|--------------------------|--0-----------------------|


                                   ^                    ^
   E  E  E  E  E  E  E  E     Q    E  E  E  E  E  E     H        Q    Q
--11-----------9-----------|-------0-----2-----4-----|--7--------5---------|
------------9-----9--------|-------0--0-----0-----0--|--5------------------|
---------9-----------9-----|-------1-----------------|--6-------------6----|
------9-----------------9--|-------2-----------------|--7------------------|
---------------------------|-------2-----------------|---------------------|
---9-----------------------|--0----0-----------------|---------------------|


  ^                                                       ^
  E  E  E  E  E  E  E  E     E  E  E  S  S E  E  E  E     E  E  E  E  E  E  E  E
--4-----------------2-----|-----------2p-0-------------|--0-----------------0--0--|
--2--------2-----------2--|--5-------------4--------4--|--0--------0--------0--0--|
--2-----2-----------------|--------2-------------2-----|--1-----1-----------1--1--|
-----2-----------2--------|-----4-------------4--------|--2--2--------------2--2--|
--------------------------|--2-------------2-----------|--2-----------------2--2--|
--2-----------2-----------|----------------------------|--0-----------0--0--0--0--|


                             ^
  E  E  E  E  E  E  E  E     E  E  E  E  E   E  E  E
--0--0--0--0--0--0--0--0--|--3-----------3s--5--7-----|
--0--0--0--0--0--0--0--0--|--3-----------3s--5--8-----|
--2--2--2--2--2--2--0--0--|--4-----4---------------0--|
--2--2--2--2--2--2--0--0--|--5--5-----5---------------|
--2--2--2--2--2--2--2--2--|--5------------------------|
--0--0--0--0--0--0--0--0--|--3------------------------|


                   NH    NH    NH    NH
   E   E  E  E     E     E     E     E     E  E  E  E  E   E  E  E
--14------------<>12--------------------|--------3-----3s--5--7-----|
------12--------------<>12--------------|--------3-----3s--5--8-----|
----------0-----------------<>12--------|-----------0------------0--|
-------------0--------------------<>12--|-----0---------------------|
----------------------------------------|---------------------------|
--12------------------------------------|--3------------------------|


                               ^
   E  E  E  E  E   E   Q       E  E  E  E  E   E  E  E
--10-----8------------------|--3-----------3s--5--7-----|
------8-----8--8------10----|--3--------3--3s--5--8-----|
------------------10--------|--4---------------------0--|
----------------------------|--5-----5------------------|
---6-----------8------------|--5--5---------------------|
----------------------------|--3------------------------|


                   NH    NH    NH    NH
   E   E  E  E     E     E     E     E     E  E  E  E  E   E  Q
--14------------<>12--------------------|--------3-----3s--5--7----|
------12--------------<>12--------------|--------3-----3s--5--8----|
----------0-----------------<>12--------|-----------0--------------|
-------------0--------------------<>12--|-----0--------------------|
----------------------------------------|--------------------------|
--12------------------------------------|--3-----------------------|


   E  E  E   E  Q    Q       E  E  E  E  E  E  E  E     E  E  E  S S E  E  E  E
--10--------10--8---------|--7-----------------5-----|--3--------5-3-2--------2--|
---------8----------------|-----------5--------------|--------1------------1-----|
------9--------------9----|--------5-----------------|-----2------------2--------|
--------------------------|-----5-----------5-----5--|--0------------0-----------|
--------------------------|--------------------------|---------------------------|
--------------------------|--5-----------5-----------|---------------------------|


                                                                           ^
  E  E  E  E  E  E  E  E     W                   H        H           Q    H.
--3-----------------------|--0----------------|--2-----------------|--0----5------------|
-----------0--0-----------|-------------------|--3--------3--------|--1----6------------|
--------0--------0--0-----|-------------------|-----------2--------|-------5------------|
-----2-----------------2--|-------------------|-----------0--------|-------3------------|
--------------------------|-------------------|--2-----------------|--3-----------------|
--0-----------0-----------|--0----------------|--------------------|--------------------|


                                                  ^                         ^
  E  E  E  E  H           E  E  E  E  H           H        H           Q    H.
-----------------------|-----------------------|--5--------1--------|--3----7------------|
--------0--1--L--------|--------0--1--L--------|--6--------3--------|--4----8------------|
-----2-----------------|-----2-----------------|--5--------2--------|--5----9------------|
--3--------------------|--3--------------------|--------------------|--------------------|
-----------------------|-----------------------|--5--------1--------|--3-----------------|
-----------------------|-----------------------|--------------------|-------0------------|


  E  E  E   E   E  E  E  E     E  E  E   E   E  E  E  E     E  E  E   E   E  E  E  E
----------------------------|----------------------------|----------------------------|
--------0h--1p--0-----------|--------0h--1p--0-----------|--------0h--1p--0-----------|
-----0-------------0--------|-----0-------------0--------|-----0-------------0--------|
----------------------2-----|----------------------2-----|----------------------2-----|
-------------------------2--|-------------------------2--|-------------------------2--|
--0-------------------------|--0-------------------------|--0-------------------------|


  E  E  E  E  E  E     E  E  E  E  E  E  E   E     E  E  E  E  E  E  E   E
--0-----------------|---------------------------|---------------------------|
-----0--------------|-----------------------14--|-----------------------11--|
--------0-----------|-----------------------12--|------------------------9--|
-----------2--------|---------------------------|---------------------------|
--------------2-----|---------------------------|---------------------------|
-----------------0--|--3--2--3--0--3--2--3---0--|--3--2--3--0--3--2--3---0--|


                                         NH    NH    NH    NH
  E  E  E  E  E  E  E  E     E  E  E     E     E     E     E  E
--------------------------|-----------------------------<>12-----|
--------------------------|-----------------------<>12-----------|
--------------------------|-----------------<>12-----------------|
--------------------------|-----------<>12-----------------------|
--------------------------|--------------------------------------|
--3--2--3--0--3--2--3--0--|--3--2--3-----0-----3-----2-----3--0--|


                          NH
  E  E  E  E  E  E  E     E     E  E  E  E  E  E  E  E     E   E  E  E  E   E  E  E
-----------------------<>12--|-----------------------9--|----------------------------|
-----------------------------|--------------------------|----------------------------|
-----------------------<>12--|-----------------------9--|----------------------------|
-----------------------------|--------------------------|----------------------------|
-----------------------------|--------------------------|----------------------------|
--3--2--3--0--3--2--3-----0--|--3--2--3--0--3--2--3--9--|--0--11--0--9--0--11--0--9--|


               NH    NH    NH    NH
  E   E  E     E     E     E     E  E     E  E  E  E  E  E  E  E
------------------------------<>12-----|--------------------------|
------------------------<>12-----------|-----------------------8--|
------------------<>12-----------------|--------------------------|
------------<>12-----------------------|-----------------------8--|
---------------------------------------|--------------------------|
--0--11--0-----9-----0----11----12--0--|--3--2--3--0--3--2--3--0--|


  E  E  E  E  E  E  E  E     E  E  E  E  E  E  E  E
-----------------------6--|--------------------------|
-----------7-----5--------|--------------------------|
-----------------------6--|--------------------------|
-----------7-----5--------|--------------------------|
--------------------------|--------------------------|
--3--2--3--0--3--2--3--0--|--3--2--3--0--3--2--3--0--|


              NH    NH    NH    NH                               NH
  E  E  E     E     E     E     E  E     E  E  E  E  E  E  E     E
-----------------------------<>12-----|-----------------------------|
-----------------------<>12-----------|-----------------------<>12--|
-----------------<>12-----------------|-----------------------------|
-----------<>12-----------------------|-----------------------<>12--|
--------------------------------------|-----------------------------|
--3--2--3-----0-----3-----2-----3--0--|--3--2--3--0--3--2--3-----0--|


  E  E  E  E  E  E  E  E     E  E  E  E  E  E  E  E     E  E  E  E  E  E  Q
-----------------------4--|-----------------------5--|-------------------------|
-----------8-----5-----4--|-----------------------5--|-------------------------|
-----------------------4--|-----------------------5--|-------------------------|
-----------8-----5--------|--------------------------|-------------------------|
-----------------------4--|-----6-----4-----6-----3--|-----5-----3-----5-------|
--3--2--3--0--3--2--3-----|--0-----0-----0-----0-----|--0-----0-----0-----0----|


  ^        TP TP TP TP TP TP TP TP    ^
  H        S  S  S  S  S  S  S  S     H        E  E   E   E
--7--------7--7--7--7--7--7--7--7--|--3--------L-------------|
--9--------9--9--9--9--9--9--9--9--|--5--------L-------------|
--9--------9--9--9--9--9--9--9--9--|--5--------L--5h--7p--5--|
--9--------9--9--9--9--9--9--9--9--|--5--------L-------------|
--7--------7--7--7--7--7--7--7--7--|--3--------L-------------|
--0--------0--0--0--0--0--0--0--0--|-------------------------|


  ^        TP TP TP TP TP TP TP TP     ^                   ^
  H        S  S  S  S  S  S  S  S      W                   Q    E  E  H
--7--------7--7--7--7--7--7--7--7--|--12----------------|----------------------|
--9--------9--9--9--9--9--9--9--9--|---8----------------|--3-------------------|
--9--------9--9--9--9--9--9--9--9--|---9----------------|--2----2--4--5--------|
--9--------9--9--9--9--9--9--9--9--|--10----------------|--0-------------------|
--7--------7--7--7--7--7--7--7--7--|--10----------------|----------------------|
--0--------0--0--0--0--0--0--0--0--|---8----------------|----------------------|


  ^                        ^
  Q    Q    Q      Q       Q    E  E  H           E  E  E  E  E  E  E  E
------------------------|----------------------|--------------------------|
--1----0----------------|--1----------0--------|--------------1--0--------|
--2---------2-----------|--0----0--2-----------|-----------0--------2--0--|
--0--------------2g4----|--2-------------------|-----0--2-----------------|
------------------------|--3-------------------|--3-----------------------|
------------------------|----------------------|--------------------------|


  E  E  Q    Q    Q       Q    E  E  H           Q    Q    Q    Q
--------3----2----3----|--7-------------------|-------8----7----8----|
--------2----2----2----|--8-------8--L--------|-------8----8----8----|
-----------------------|----------7--L--------|----------------------|
-----2-----------------|----------------------|----------------------|
--4--------------------|----------------------|----------------------|
-----------------------|--8----8--------------|--6-------------------|


                            ^                      NH        NH        NH        NH
   Q    Q    E  E  E  E     W                      E   E     E   E     E   E     E   E
--11------------7--------|--3----------------|------------------------------------------|
-------------------9-----|--4----------------|------------------------------------------|
----------------------8--|--0----------------|------------<>12----------------<>12------|
-------------------------|-------------------|--<>12----------------<>12----------------|
-------------------------|-------------------|--------18--------18--------18--------18--|
--------4----L-----------|--4----------------|------------------------------------------|


     NH        NH
     E   E     E   E    Q      Q
-----------------------------<>3----||
----------------------<>4-----------||
------------<>12--------------------||
--<>12------------------------------||
--------18--------18----------------||
------------------------------------||




Duration Legend
---------------
W - whole
H - half
Q - quarter
E - 8th
S - 16th
. - note dotted


Tablature Legend
----------------
L - tied note
x - dead note
g - grace note
NH - natural harmonic
AH - artificial harmonic
h - hammer on
p - pull off
s - legato slide
TP - tremolo picking
^ - brush up
Login or Register to remove this ad.

11 comments on Main Theme (nosebloods version)

Thank you auri!! I love you

Thank you auri!! I love you for this ^_______^!

(not in a lesbian way of course!!)

And you tabbed it out so fast and accurate too! ;-;

Yw ^-^

Yw ^-^

Whoa, auri, you're amazing! I

5

Whoa, auri, you're amazing!
I would give seven stars if that was possible...
The ultimate awesomeness become real :D

Wow. I am honored to stand in

5

Wow. I am honored to stand in the presence of such a great work.

thank you! 5000000 stars!

5

thank you! 5000000 stars!

Wow.

5

One of the best works on the site. Amazing.

VeRy CoOl iN ThE WhOlE WoRld

VeRy CoOl iN ThE WhOlE WoRld

five stars for that

5

five stars for that

Wow how did I miss this? I

5

Wow how did I miss this? I have got to learn this

E E E E E E E E E

5
  E  E  E  E  E  E     E  E  E  E  E  E  E   E     E  E  E  E  E  E  E   E
--0-----------------|---------------------------|---------------------------|
-----0--------------|-----------------------14--|-----------------------11--|
--------0-----------|-----------------------12--|------------------------9--|
-----------2--------|---------------------------|---------------------------|
--------------2-----|---------------------------|---------------------------|
-----------------0--|--3--2--3--0--3--2--3---0--|--3--2--3--0--3--2--3---0--|

I'm having trouble figuring out how to do the last two bars on this. Do I just move my (left) fretting hand back and forth really quick or do I use my right hand to tap the notes somehow. If so how do I tap in a way that it's actually audible because it sounds like very quiet mush right now.

From how nosebloods's

From how nosebloods's recording sounds, the 3230 bass line seems to be pull-off/hammer-ons by the left hand, while the right hand smacks the uppers notes at the end of those measures (or harmonics later on). You can still hear them ring while the next measure's bass line continues so his right hand is most likely still pressed down on the fret board. You'll need to practice it to get them to ring since your picking fingers will need more strength and harder skin to make it sound louder imo. The guitar itself also influences this.

Better fingerstylists might know a particular technique to this, I haven't done this in years >:

Edit:
Due to the pull off/hammer ons, this part:

A -----------------------4--|-----6-----4-----6-----3--|-----5-----3-----5-------|
E --3--2--3--0--3--2--3-----|--0-----0-----0-----0-----|--0-----0-----0-----0----|

is most likely:

E --3--2--3--0--3--2--3--9--|--0--11--0--9--0--11--0--8--|--0--10--0--8--0--10--0----|

including the h/p signs which I cba adding.