Ads

Main Theme (Final Fantasy VII) Guitar Tab

Submitted: Jun 23, 2013 by Colin_spade

5
Average: 5 (8 votes)
Download | Listen
Game: Final Fantasy VII
Composer(s): Nobuo Uematsu
Style: Arrangement, Artificial harmonics, Fingerstyle, Natural harmonics
Series: Final Fantasy

AutoScroll: Slow | Medium | Fast
FF7 Main Theme                                  


                                                                   Nobuo Uematsu
Track 1



     ^                                                            
     H        Q    Q       H        H           W                 
E||---------------------|--2--------0--------|--L----------------|
B||----------------0----|--------------------|-------------------|
G||--0--------2---------|--------------------|-------------------|
D||--0------------------|--L-----------------|--L----------------|
A||--2------------------|--L-----------------|--L----------------|
E||--3------------------|--L-----------------|--L----------------|


           ^                     ^            ^                 
  H        Q    Q       H        Q    Q       W                 
---------------------|---------------------|--1----------------|
--1--------2---------|--1--------2---------|--1----------------|
--1--------1---------|--1--------1---------|--1----------------|
--3--------2---------|--3--------2---------|--3----------------|
-----------4---------|-----------4---------|--3----------------|
---------------------|---------------------|--1----------------|


  H        Q    Q       H        H           W                 
---------------------|--6-----------------|-------------------|
---------------------|-----------6--------|--L----------------|
--3--------5----6----|--------------------|-------------------|
---------------------|--------------------|-------------------|
---------------------|--------------------|-------------------|
---------------------|--------------------|-------------------|


           ^                     ^            ^                 
  H        Q    Q       H        Q    Q       W                 
---------------------|---------------------|-------------------|
---------------------|---------------------|-------------------|
--2--------3---------|--2--------3---------|--2----------------|
--3--------3---------|--3--------3---------|--3----------------|
--5--------5---------|--5--------5---------|--5----------------|
-----------6---------|-----------6---------|-------------------|


                      ^                     ^        ^         
  W                   H        Q    Q       H        H         
-------------------|---------------------|--3-----------------|
-------------------|---------------------|--1--------3--------|
--L----------------|--0--------1----3----|--1--------0--------|
--L----------------|---------------------|--3--------1--------|
--L----------------|--1------------------|--------------------|
-------------------|--3------------------|--------------------|


  H        Q    Q       W                   W                 
---------------------|-------------------|-------------------|
---------------------|-------------------|-------------------|
---------------------|-------------------|-------------------|
--4------------------|-------------------|-------------------|
--5--------3----1----|--0----------------|--L----------------|
---------------------|-------------------|-------------------|


  ^                     ^                                         
  H        Q    Q       H        H           Q    Q    Q    Q     
---------------------|--------------------|----------------------|
---------------------|--4--------2--------|----------------------|
----------------1----|--1-----------------|-----------------1----|
--2--------4---------|--2-----------------|-------2----4---------|
--2------------------|--4-----------------|--2-------------------|
--0------------------|--------------------|--0-------------------|


                                               ^                  
  Q    Q    Q    Q       H        Q    Q       H        H         
----------------------|---------------------|--------------------|
--0-------------------|---------------------|--4--------2--------|
--5----2--------------|----------------1----|--1-----------------|
--5---------2----4----|--2--------4---------|--2-----------------|
--3---------5---------|--2------------------|--4-----------------|
----------------------|--0------------------|--------------------|


                                                ^                 
  Q    Q    Q    Q       Q    Q    Q    Q       W                 
----------------------|----------------------|-------------------|
----------------------|--0-------------------|-------------------|
-----------------1----|-------2--------------|--1----------------|
-------2----4---------|--2---------2----4----|-------------------|
--2-------------------|--4-------------------|--2----------------|
--0-------------------|----------------------|--4----------------|


  ^                                                            
  Q    Q    Q    Q       W                   W                 
----------------------|-------------------|-------------------|
------------0---------|-------------------|-------------------|
-------1---------1----|-------------------|--2----------------|
--2-------------------|--4----------------|-------------------|
--0-------------------|--5----------------|--2----------------|
--2-------------------|-------------------|-------------------|


    ^                                                                
    H        Q    Q        H        H           Q    Q    Q    Q     
|---0--------2----4----|--11--------9--------|-------0----2----4----|
|---0--------0----5----|---------------------|------------0----5----|
|*--1------------------|--11--------9--------|-------1--------------|
|*--2------------------|---------------------|----------------------|
|---2------------------|---------------------|--2-------------------|
|---0------------------|---9-----------------|--0-------------------|


                         ^                                         
  Q    Q    Q    Q       H        Q    Q        H        H         
--7----5----0----2----|--0--------2----4----|--11--------9--------|
------------1----3----|--0--------0----5----|---------------------|
--0---------0---------|--1------------------|--11--------9--------|
----------------------|--2------------------|---------------------|
--3-------------------|--2------------------|---------------------|
----------------------|--0------------------|---9-----------------|


                                               ^                  
  Q    Q    Q    Q       H        Q    Q       H.           Q     
-------0----2----4----|--7--------5---------|--4------------2----|
------------0----5----|-----------2----2----|--2------------2----|
-------1--------------|----------------2----|--2-----------------|
--2-------------------|--7------------------|--4-----------------|
--2-------------------|--0------------------|--------------------|
--0-------------------|---------------------|--------------------|


  ^                                                                        
  H        H           E  E  E  E  E  E  E  E     E  E  E  E  E  E  E  E   
--0-----------------|--0-----------------------|--------4-----5-----4-----|
--0--------4--------|--0-----------------------|--------------------------|
--2--------4--------|--------------------------|--------------------------|
--------------------|--------2-----------2-----|--------2-----------2-----|
--2-----------------|-----2-----2-----2-----2--|-----2-----2-----2-----2--|
--------------------|--0-----------0-----------|--0-----------0-----------|


  E  E  E  E  E  E  E  E     E  E  E  E  E  E  E  E   
--4--2--2--4--5-----------|--------------------4--2--|
--------------------------|--------------------------|
--------------------------|--------------------------|
--------------------------|--------------------------|
-----0--4--0-----0--4--0--|-----0--4--0-----0--4--0--|
--2-----------2-----------|--2-----------2-----------|


  E  E  E  E  E  E  E  E     E  E  E  E  E  E  E  E   
--0--2--4-----------------|--------------------------|
--------------------------|--4-----------2-----------|
--------------------------|--------------------------|
--------2-----------2-----|--------2-----------2-----|
-----2-----2-----2-----2--|-----2-----2-----2-----2--|
--0-----------0-----------|--0-----------0-----------|


  E  E  E  E  E  E  E  E     E  E  E  E  E  E  E  E   
--7--5--7--9--0-----------|--------------0-----2-----|
--------------------------|--------------------------|
--------------------------|--------------------------|
--------------------2-----|--------2-----------2-----|
--0--4--7-----0--4-----4--|-----4-----4-----4-----4--|
-----------9--------------|--5-----------5-----------|


  E  E  E  E  E  E  E  E     E  E  E  E  E  E  E  E   
--4-----------0-----4-----|-----------------4--5--4--|
--0-----------------------|--4-----------5-----------|
--------------------------|--------------------------|
--------2-----------2-----|--------2-----------2-----|
-----2-----2-----2-----2--|-----2-----2-----2-----2--|
--0-----------0-----------|--0-----------0-----------|


  E  E  E  E  E  E  E  E     E  E  E  E  E  E  E  E   
--4--2--2--4--5-----------|--------------------4-----|
--------------------------|-----------------------7--|
--------------------------|--------------------------|
--------------------------|--------------------------|
-----0--4--0-----0--4--0--|-----0--4--0-----0--4-----|
--2-----------2-----------|--2-----------2--------5--|


  E  E  E  E  E  E  E  E     E  E  E  E  E  E  E  E   
--0-----4-----------------|--9-----------4-----------|
-----7--------4-----5-----|--------------------------|
--6-----6-----------6-----|--------6-----------6-----|
-----6-----6-----6-----6--|-----6-----6-----6-----6--|
--4-----------4-----------|--------------4-----------|
--------------------------|--9-----------------------|


   E   E   E   E   Q    Q       Q    Q    E   E   E   E   
--12--11--11---9---9---------|----------------9--11---9--|
--14--12--12--10--10---------|---------------10--12--10--|
-----------------------------|---------------------------|
-----------------------------|--7------------------------|
---0---------------0----7----|-------0-------------------|
-----------------------------|------------7-------9------|


                                                    ^                 
  E  E  E  E   Q.     E     Q.     E  H             W                 
--7----------------------|----------------------||--0----------------|
-----7--7--9--10---------|----------------------||--0----------------|
-----8--8--9--11---------|---------------------*||--1----------------|
----------------------6--|--4------2--1--------*||--2----------------|
---------------0---------|----------------------||--2----------------|
--7----------------------|----------------------||--0----------------|


                         ^                                           
  Q    Q    Q    Q       H        Q    Q       H        E  E  E  E   
----------------------|---------------------|--2--------0-----------|
----------------------|----------------0----|--0--------------------|
----------------------|--0--------2----0----|-----------2-----0-----|
----------------------|-----------0---------|-----------------------|
----------------------|--2------------------|-----------------------|
--0----0----0----0----|--3------------------|--0--------0--0--0--0--|


                                                ^                   
  Q    Q    Q    Q       Q    Q    Q    Q       H        Q    Q     
----------------------|----------------------|---------------------|
-----------------0----|--3----1--------------|----------------0----|
-------0----2----0----|--3----2----0----2----|--0--------2----0----|
------------0---------|--1---------1----3----|-----------0---------|
-------2--------------|----------------------|--2------------------|
--3-------------------|------------1---------|--3------------------|


                                                 ^                   
  H        E  E  E  E     Q    Q    Q    Q       H        Q    Q     
--2--------0-----------|----------------------|---------------------|
--0--------------------|-----------------0----|--3--------1---------|
-----------2-----0-----|-------0----2----0----|--0------------------|
-----------------------|------------0---------|--2--------2----2----|
-----------------------|-------2--------------|--3-------------3----|
--0--------0--0--0--0--|--3-------------------|---------------------|


  ^                                            ^                    
  H.           Q       H        E  E  E  E     Q    Q    Q    Q     
--------------------|-----------------------|-------0--------------|
--0-----------------|-----------------------|------------0---------|
---------------2----|--0--------------------|--0--------------0----|
--0-----------------|--0--------4-----------|--2-------------------|
--3------------3----|-----------5--5--5--5--|--2-------------------|
--------------------|-----------------------|--0-------------------|


                      ^                    ^                   
  W                   H        H           E  E  H.            
-------------------|--2-----------------|--0-----5------------|
-------------------|--3--------3--------|--1-----6------------|
-------------------|--4--------4--------|--2-----5------------|
--2----------------|-----------5--------|--2-----3------------|
-------------------|--2--------5--------|---------------------|
-------------------|--------------------|---------------------|


                                                          ^        ^         
  E  E  E  E  H             E    E    E    E  H           H        H         
-----------------------|-------------------------------|--5-----------------|
--------0--1--L--------|------------<>0--<>1--L--------|--6--------6--------|
-----2-----------------|-------<>2---------------------|--7--------7--------|
--3--------------------|--<>3--------------------------|--0--------8--------|
-----------------------|-------------------------------|--------------------|
-----------------------|-------------------------------|-----------6--------|


         ^                                                            
   E  E  H.              W                   E  E  E  E  E  E  E  E   
---------7------------|-------------------|--------------------------|
---8-----8------------|-------------------|--------0--1--0-----------|
---8-----9------------|-------------------|-----0-----------0--------|
--10------------------|-------------------|--2-----------------2-----|
----------------------|-------------------|-----------------------2--|
---8-----0------------|--0----------------|--------------------------|


  E  E  E  E  E  E  E  E     E  E  E  E  E  E  E  E   
--------------------------|--------------------------|
--------0--1--0-----------|--3-----3-----3-----3-----|
-----0-----------0--------|--4-----4-----4-----4-----|
--2-----------------2-----|--------------------------|
-----------------------2--|--------------------------|
--------------------------|--0--3--2--3--0--3--2--3--|


  E  E  E  E  E  E  E  E     E  E  E  E  E  E  E  E   
--------------------------|--------------------------|
--3-----3-----3-----3-----|--3-----3-----3-----3-----|
--4-----4-----4-----4-----|--4-----4-----4-----4-----|
--------------------------|--------------------------|
--------------------------|--------------------------|
--0--3--2--3--0--3--2--3--|--0--3--2--3--0--3--2--3--|


  E  E  E  E  E  E  E  E     E  E  E  E  E  E  E  E   
--------------------------|--------------------------|
--2-----------------------|--------------------------|
--0-----------------------|--3-----------------------|
--------------------------|--4-----------------------|
--------------------------|--4-----------------------|
--0--3--2--3--0--3--2--3--|--0--3--2--3--0--3--2--3--|


  E  E  E  E  E  E  E  E     E  E  E  E  E  E  E  E   
--------------------------|--------------------------|
--------------------------|--3-----3-----3-----3-----|
--------------------------|--4-----4-----4-----4-----|
--------------------------|--------------------------|
--------------------------|--------------------------|
--0--3--2--3--0--3--2--3--|--0--3--2--3--0--3--2--3--|


  E  E  E  E  E  E  E  E     E  E  E  E  E  E  E  E   
--0-----------------------|--------------------------|
--------------------------|--------------------------|
--0-----------------------|--6-----6-----------6-----|
--------------------------|--6--6-----6-----6-----6--|
--------------------------|--4-----------4-----------|
--0--3--2--3--0--3--2--3--|--------------------------|


  E  E  E  E  E  E  E  E     E  E  E  E  E  E  E  E   
--------------------------|--------------3-----------|
--------------------------|--------------0-----------|
--------6-----------6-----|--------------------------|
-----6-----6-----6-----6--|--------------------------|
--4-----------4-----------|--------------------------|
--------------------------|--0--3--2--3--0--3--2--3--|


  E  E  E  E  E  E  E  E     E  E  E  E  E  E  E  E   
--2-----------0-----------|--6-----------------------|
--0-----------0-----------|--5-----------------------|
--------------------------|--6-----------------------|
--------------------------|--------------------------|
--------------------------|--------------------------|
--0--3--2--3--0--3--2--3--|--0--3--2--3--0--3--2--3--|


  E  E  E  E  E  E  E  E     E  E  E  E  E  E  E  E   
--------------------------|--------------7-----------|
--------------------------|--------------------------|
--------------------------|--------------------------|
--------------------------|--------------------------|
--------------------------|--------------------------|
--0--3--2--3--0--3--2--3--|--0--3--2--3--0--3--2--3--|


                             ^                        
  E  E  E  E  E  E  E  E     E  E  E  E  E  E  E  E   
--3-----------0-----------|--4-----------------------|
--3-----------0-----------|--5-----------------------|
--------------------------|--6-----6-----------6-----|
--------------------------|-----6-----6-----6-----6--|
--------------------------|--4-----------4-----------|
--0--3--2--3--0--3--2--3--|--------------------------|


                             ^                   ^                        
  E  E  E  E  E  E  E  E     W                   H        E   E   E   E   
--5-----------------------|--7----------------|--8-----------------------|
--5-----------------------|--9----------------|--8-----------------------|
--7-----6-----------6-----|--9----------------|--9-----------------------|
-----6-----6-----6-----6--|-------------------|--------------10--12--10--|
--4-----------4-----------|-------------------|------------------10------|
--------------------------|--0----------------|--8--------8--------------|


  ^                    ^                                      NH           
  W                    Q     Q    E  E  E  E      Q     E     E  H         
--7----------------|--12----------------------|--10--------------8--------|
--9----------------|---8----------------------|--------10--<>12-----------|
--9----------------|---9----------------------|---------------------------|
--9----------------|--10----------------------|---0-----------------------|
-------------------|--------10----------------|---------------------------|
--0----------------|---8----------8--8--8--8--|--10-----------------------|


                         ^       NH               
  Q    Q    Q    Q       Q       E   E  H         
----------------------|--8--------------7--------|
-------0--------------|-------------10-----------|
--5-------------------|--0----<>12---------------|
------------7---------|--------------------------|
-----------------9----|--7-----------------------|
----------------------|--8-----------------------|


              NH    NH                                     
  E  E  E     E     Q    E  E     E  E  E  E  E  E  E  E   
--------0----------------5--3--|--------3-----2-----3-----|
-----3-----------<>12----------|-----------0-----------0--|
--5--------<>12----------------|--------0-----------0-----|
-------------------------------|-----2-----------2--------|
-------------------------------|--4-----------4-----------|
-------------------------------|--------------------------|


     NH                                        NH           
     E  E  E  E  E  E  E  E     E  E  E  E     E  E  E  E   
-----------------3-----------|--------8--------------8-----|
--<>12--------0-----------0--|--------------<>12-----------|
-----------0-----------0-----|--------0--5-----------0--5--|
--------1-----------1--------|-----------------------------|
-----3-----------3-----------|-----6--------------6--------|
-----------------------------|--6--------------6-----------|


                  NH             NH                     NH                
   H        E     E  E  E        W                      W                 
--11--------L--------------|----------------------|----------------------|
---------------<>12--9-----|----------------------|----------------------|
------------------------8--|--<>12----------------|----------------------|
--13-----------------------|----------------------|--<>12----------------|
---------------------------|----------------------|----------------------|
--11-----------------------|----------------------|----------------------|


  W                  
-------------------||
-------------------||
-------------------||
--L----------------||
-------------------||
-------------------||




Duration Legend
---------------
W - whole
H - half
Q - quarter
E - 8th
S - 16th
T - 32nd
X - 64th
. - note dotted
|-n-|  - n-tuplets


Tablature Legend
----------------
L - tied note
x - dead note
g - grace note
(n) - ghost note
> - accentuded note
NH - natural harmonic
AH - artificial harmonic
TH - tapped harmonic
SH - semi harmonic
PH - pitch harmonic
h - hammer on
p - pull off
b - bend
br - bendRelease
pb - preBend
pbr - preBendRelease
brb - bendReleaseBend
\n/ - tremolo bar dip
\n - tremolo bar dive
-/n - tremolo bar Release up
/n\ - tremolo bar inverted dip
/n - tremolo bar return
-\n - tremolo bar Release down
S - shift slide
s - legato slide
/ -  slide into from below or out of upwards
\ -  slide into from above or out of downwards
~ - vibrato
W - wide vibrato
tr - trill
TP - tremolo picking
T - tapping
S - slap
P - pop
< - fade in
^ - brush up
v - brush down
Login or Register to remove this ad.

2 comments on Main Theme

Wow, incredible!

5

Wow, incredible!

Perfect

5

Perfect!