Ads

Main Theme (Final Fantasy VII) Guitar Tab

Submitted: Jun 26, 2010 by Daugreano

4
Average: 4 (4 votes)
Download | Listen
Game: Final Fantasy VII
Composer(s): Nobuo Uematsu
Style: Transcription
Series: Final Fantasy

AutoScroll: Slow | Medium | Fast
Song: Main Theme
Game: Final Fantasy VII
Composer: Nobuo Uematsu
Tabbed by: Daugreano 


Guitar: 

   H     Q    Q      H     H       Q    Q    Q    Q      Q    Q    Q    Q     
E|-----------------|-------------|---------------------|---------------------|
B|-----------------|-------------|---------------------|---------------------|
G|-----------------|-8-----------|---------------------|---------------------|
D|-----------------|-------11----|---------------------|-9----7--------------|
A|-7-----9----11---|-------------|------7----9----11---|-----------7----9----|
E|-----------------|-------------|---------------------|---------------------|


Repeat the 1st four measures...Then,

   W
E|--------|
B|--------|
G|--------|
D|--------|
A|-11-----|
E|--------|

   Q    Q    Q    Q      W        W        H     Q    Q      H     H       Q    Q    Q    Q        
E|---------------------|--------|--------|-----------------|-11----9-----|---------------------|
B|---------------------|--------|--------|------------9----|-------------|----------------9----|
G|---------------------|--------|--------|-9-----11--------|-------------|------9----11--------|
D|-----------9---------|--------|--------|-----------------|-------------|---------------------|
A|------11--------11---|-9------|--------|-----------------|-------------|---------------------|
E|---------------------|--------|--------|-----------------|-------------|---------------------|

   Q    Q    Q    Q      H     Q    Q      H     H       Q    Q    Q    Q      H     Q     Q    
E|-7-------------------|-----------------|-11----9-----|---------------------|-7---------------|
B|------10-------------|------------9----|-------------|----------------9----|-------10--------|
G|-----------9----11---|-9-----11--------|-------------|------9----11--------|-----------------|
D|---------------------|-----------------|-------------|---------------------|------------11---|
A|---------------------|-----------------|-------------|---------------------|-----------------|
E|---------------------|-----------------|-------------|---------------------|-----------------|
 
   H.     Q      H     H       W        Q    Q    Q    Q      E   E   E   E   H 
E|-------------|-------------|--------|---------------------|-----------------------|
B|-9-----------|-------------|--------|------9----10---9----|-9-----------9---10----|
G|--------11---|-9-----8-----|-9------|---------------------|-----11--11------------|
D|-------------|-------------|--------|---------------------|-----------------------|
A|-------------|-------------|--------|---------------------|-----------------------|
E|-------------|-------------|--------|---------------------|-----------------------|

   H.     E   E     E   E   H.       W        E   E   E   E   H       H     Q    Q
E|----------------|----------------|--------|-7-------7---9---------|-----------------|
B|--------9-------|---------9------|--------|-----10----------------|-----------------|
G|------------11--|-9---11---------|--------|-----------------9-----|-------9----11---|
D|----------------|----------------|--------|-----------------------|-----------------|
A|----------------|----------------|--------|-----------------------|-----------------|
E|----------------|----------------|--------|-----------------------|-----------------|

   W        H     E   E   E   E     E   E   E   E   H       H.     E   E     E   E   H.
E|--------|-----------------------|-----------------------|----------------|----------------|
B|-9------|-----------9---10--9---|-9-----------9---10----|--------9-------|---------9------|
G|--------|-----------------------|-----11--11------------|------------11--|-9---11---------|
D|--------|-----------------------|-----------------------|----------------|----------------|
A|--------|-----------------------|-----------------------|----------------|----------------|
E|--------|-----------------------|-----------------------|----------------|----------------|

   W        E   E   E   E   H       H     E   E   E   E     E   E   E   E   H
E|--------|-12--11--11--9---9-----|-----------9---11--9---|-7---------------------|
B|--------|-----------------------|-----------------------|-------------9---10----|
G|--------|-----------------------|-----------------------|-----11--11------------|
D|--------|-----------------------|-----------------------|-----------------------|
A|--------|-----------------------|-----------------------|-----------------------|
E|--------|-----------------------|-----------------------|-----------------------|

   W        H     Q    Q      H     H       Q    Q    Q    Q      Q    Q    Q    Q
E|--------|-----------------|-11----9-----|---------------------|-7-------------------|
B|--------|------------9----|-------------|----------------9----|------10-------------|
G|--------|-9-----11--------|-------------|------9----11--------|-----------9----11---|
D|--------|-----------------|-------------|---------------------|---------------------|
A|--------|-----------------|-------------|---------------------|---------------------|
E|--------|-----------------|-------------|---------------------|---------------------|

   H     Q    Q      H     H       Q    Q    Q    Q      H     Q    Q      H.     Q
E|-----------------|-11----9-----|---------------------|-7---------------|-------------|
B|------------9----|-------------|----------------9----|-------10--------|-9-----------|
G|-9-----11--------|-------------|------9----11--------|-----------------|--------11---|
D|-----------------|-------------|---------------------|------------11---|-------------|
A|-----------------|-------------|---------------------|-----------------|-------------|
E|-----------------|-------------|---------------------|-----------------|-------------|

   H     H       W
E|-------------|--------|
B|-------------|--------|
G|-9-----8-----|-9------|
D|-------------|--------|
A|-------------|--------|
E|-------------|--------|



Login or Register to remove this ad.