Ads

Lurking in the Darkness (Final Fantasy VII) Bass Tab

Submitted: Jan 03, 2020 by hashel

0
Download | Listen
Game: Final Fantasy VII
Composer(s): Nobuo Uematsu
Style: Transcription
Series: Final Fantasy

AutoScroll: Slow | Medium | Fast
Tempo = 120
Electric Bass

Legend
L - tied note
x - dead note
h - hammer on/pull off
b - bend
s - slide
~ - vibrato
g - ghost note
> - accentuated note
t - trill
M - palm mute
. - staccato
P - popping (bass)
S - slapping (bass)
+ - tapping
W - wide vibrato
< - fade in
w - whammy bar
= - tremolo picking
v - brush up
^ - brush down
V - pick stroke up
n - pick stroke down


G |----|--------7--8----|--9L---|--9----|-------|-------|
D |----|-----10---------|-------|-------|--6----|-------|
A |----|----------------|-------|-------|-------|--7----|
E |----|----------------|-------|-------|-------|-------|


----------------------------|--------7--8----|--9----|
--------8L------------------|--8--10---------|-------|
--9-------------------------|----------------|-------|
----------------------------|----------------|-------|


--15s14s15------------------------------------------|----|----|----|
----------------------------------------------------|----|----|----|
----------------------------------------------------|----|----|----|
----------------------------------------------------|----|----|----|


--10-------9-----7----------|-------|
-----9--10----------7--9----|--10---|
----------------------------|-------|
----------------------------|-------|


----------------------------------------------------|
--------------10-9--------------------11-------14---|
-----10-11-12-------13-12-11----10-12----12-14------|
-----------------------------13---------------------|


----------------------------------------------------|
--------------------------------11-10-------9L------|
----------------------------------------------------|
----------------------------------------------------|


----------------------------------------------------|
--9-----------------------------9--8--------7L------|
----------------------------------------------------|
----------------------------------------------------|


----------------------------------------------------|
--7-----------------------------7--6--------5L------|
----------------------------------------------------|
----------------------------------------------------|


----------------------------------------------------|-------|----|
--5-----------------------------5-------------------|-------|----|
-----------------------------------8--------7L------|--7----|----|
----------------------------------------------------|-------|----|


----------------------------------------|
--9h-10-9h-10---------------------------|
--10h11-10h11---------------------------|
----------------------------------------|


----------------------------------------------------|
----------------------------------------------------|
----------------------------------------------------|
----------------------------------------------------|


----------------------------------------------------|
----------------------------------------------------|
----------------------------------------------------|
----------------------------------------------------|


----------------------------------------------------|
----------------------------------------------------|
----------------------------------------------------|
----------------------------------------------------|


----------------------------------------------------|
----------------------------------------------------|
----------------------------------------------------|
----------------------------------------------------|


----------------------------------------------------|
----------------------------------------------------|
----------------------------------------------------|
----------------------------------------------------|


----------------------------------------------------|
----------------------------------------------------|
----------------------------------------------------|
----------------------------------------------------|


----------------------------------------------------|
----------------------------------------------------|
----------------------------------------------------|
----------------------------------------------------|


--------7-----9-------------|--10-11----11---------------|-------||
-----9-----9-----9-----9----|--------------------7--9L---|--9----||
----------------------------|-----------------9----------|-------||
----------------------------|----------------------------|-------||
Login or Register to remove this ad.