Ads

Lifestream (Final Fantasy VII) Guitar Tab

Submitted: May 28, 2017 by Bhael

5
Average: 5 (2 votes)
Download | Listen
Game: Final Fantasy VII
Composer(s): Nobuo Uematsu
Style: Arrangement, Artificial harmonics, Fingerstyle, Natural harmonics
Series: Final Fantasy

Click here for a video example.

AutoScroll: Slow | Medium | Fast
                                Lifestream                                    
                              Final Fantasy VII
                                Nobuo Uematsu




     W                    Q     Q     H           W                 
D||-------------------|--17----------16--------|--L----------------|
A||-------------------|--------17--------------|-------------------|
F||-------------------|------------------------|-------------------|
C||-------------------|------------------------|-------------------|
G||--7----------------|------------------------|-------------------|
C||-------------------|------------------------|-------------------|


           NH      NH      NH                        
   Q       Q       Q       Q       W                 
--15--------------------<>12----|--L----------------|
----------------<>19------------|-------------------|
--------<>19--------------------|-------------------|
--------------------------------|-------------------|
--------------------------------|-------------------|
--------------------------------|-------------------|


  S S S S S S S S S S S S S S S S  
--0-0-0-0-0-0-0-0-0-0-0-0-0-0-0-0-|
----------------------------------|
----------------------------------|
----------------------------------|
----------------------------------|
----------------------------------|


     NH   NH   NH   NH   NH   NH   NH   NH   NH   NH   NH   NH   NH   NH   NH   
     S    S    S    S    S    S    S    S    S    S    S    S    S    S    S    
-----0----0----0----0----0----0----0----0----0----0----0----0----0----0----0----
--<>12-<>12-<>12-<>12-<>12-<>12-<>12-<>12-<>12-<>12-<>12-<>12-<>12-<>12-<>12-<>1
--------------------------------------------------------------------------------
--------------------------------------------------------------------------------
--------------------------------------------------------------------------------
--------------------------------------------------------------------------------


     NH   NH   NH   NH   NH   NH   NH   NH   NH   NH   NH   NH   NH   NH   NH   
     S    S    S    S    S    S    S    S    S    S    S    S    S    S    S    
-----0----0----0----0----0----0----0----0----0----0----0----0----0----0----0----
--<>12-<>12-<>12-<>12-<>12-<>12-<>12-<>12-<>12-<>12-<>12-<>12-<>12-<>12-<>12-<>1
--<>12-<>12-<>12-<>12-<>12-<>12-<>12-<>12-<>12-<>12-<>12-<>12-<>12-<>12-<>12-<>1
--------------------------------------------------------------------------------
--------------------------------------------------------------------------------
--------------------------------------------------------------------------------


     NH   NH   NH   NH   NH   NH   NH   NH   NH   NH   NH   NH   NH   NH   NH   
     S    S    S    S    S    S    S    S    S    S    S    S    S    S    S    
-----0----0----0----0----0----0----0----0----0----0----0----0----0----0----0----
----15---15---15---15---15---15---15---15---15---15---15---15---15---15---15---1
--<>12-<>12-<>12-<>12-<>12-<>12-<>12-<>12-<>12-<>12-<>12-<>12-<>12-<>12-<>12-<>1
--------------------------------------------------------------------------------
--------------------------------------------------------------------------------
--------------------------------------------------------------------------------


     NH                
     W                 
-----0----------------|
----15----------------|
--<>12----------------|
----------------------|
----------------------|
----------------------|


   ^                                                            
   |---3--|  |---3--|  |---3--|  |---3--|  |---3--|  |---3--|   
   E  E   E  E  E   E  E  E   E  E  E   E  E  E   E  E  E   E   
---9---------9---------9---------9---------9---------9---------|
--10-----10--------10--------10--------10--------10--------10--|
---9--9---------9---------9---------9---------9---------9------|
---------------------------------------------------------------|
---0-----------------------------------------------------------|
---------------------------------------------------------------|


  |--3--|  |--3--|  |--3--|  |--3--|  |--3--|  |--3--|   
  E  E  E  E  E  E  E  E  E  E  E  E  E  E  E  E  E  E   
--9--------9--------9--------7--------7--------7--------|
--------0--------0--------0--------0--------0--------0--|
-----0--------0--------0--------0--------0--------0-----|
--------------------------------------------------------|
--------------------------------------------------------|
--------------------------------------------------------|


   ^                                                            
   |---3--|  |---3--|  |---3--|  |---3--|  |---3--|  |---3--|   
   E  E   E  E  E   E  E  E   E  E  E   E  E  E   E  E  E   E   
---9---------9---------9---------9---------9---------9---------|
--10-----10--------10--------10--------10--------10--------10--|
---9--9---------9---------9---------9---------9---------9------|
---------------------------------------------------------------|
---0-----------------------------------------------------------|
---------------------------------------------------------------|


                                                    NH    
  |--3--|  |--3--|  |--3--|   |--3--|   |--3--|           
  E  E  E  E  E  E  E  E  E   E  E  E   E  E  E     Q     
--9--------9--------9--------10--------10--------<>12----|
--------0--------0--------0---------0---------0----------|
-----0--------0--------0---------0---------0-------------|
---------------------------------------------------------|
---------------------------------------------------------|
---------------------------------------------------------|


                                NH                          
         |--3--|    |--3--|     |--3--|    |--3--|          
  Q      E  E  E    E  E  E     E  E  E    E  E  E    Q     
-----------------------------<>12--------------------------|
-------<>2--------<>3--------------------<>2---------------|
---------------2----------2-----------2----------2--<>2----|
------------2----------2-----------2----------2------------|
--0--------------------------------------------------------|
-----------------------------------------------------------|


     NH                         ^                           
     |--3--|  |--3--|  |--3--|  |--3--|  |--3--|  |--3--|   
     E  E  E  E  E  E  E  E  E  E  E  E  E  E  E  E  E  E   
--------------5--------5--------3--------3--------3--------|
-----------2--------2--------2--0-----0--------0--------0--|
--<>12--0--------0--------0-----0--0--------0--------0-----|
-----------------------------------------------------------|
-----------------------------------------------------------|
-----5--------------------------5--------------------------|


                                    NH                          
  |--3--|    |--3--|    |--3--|     |--3--|    |--3--|          
  E  E  E    E  E  E    E  E  E     E  E  E    E  E  E    Q     
---------------------------------<>12--------------------------|
-----------<>2--------<>3--------------------<>2---------------|
--------2----------2----------2-----------2----------2--<>2----|
-----2----------2----------2-----------2----------2------------|
--0------------------------------------------------------------|
---------------------------------------------------------------|


                                  NH                          
    |--3--|  |--3--|  |--3--|     |--3--|  |--3--|  |--3--|   
    E  E  E  E  E  E  E  E  E     E  E  E  E  E  E  E  E  E   
-------------------------------<>12--------------------------|
--<>7--------------------------<>12--------0--------0--------|
-------------6--------6-----------------0--------0--------0--|
----------5--------5--------5--------0--------0--------0-----|
-------5--------5--------5-----------------------------------|
----5--------------------------------------------------------|


                                NH                          
         |--3--|    |--3--|     |--3--|    |--3--|          
  Q      E  E  E    E  E  E     E  E  E    E  E  E    Q     
-----------------------------<>12--------------------------|
-------<>2--------<>3--------------------<>2---------------|
---------------2----------2-----------2----------2--<>2----|
------------2----------2-----------2----------2------------|
--0--------------------------------------------------------|
-----------------------------------------------------------|


     NH                         ^                 NH    
     |--3--|  |--3--|  |--3--|                          
     E  E  E  E  E  E  E  E  E  Q    Q    Q       Q     
--------------5--------5--------3----5----7------------|
-----------2--------2--------2--3----------------------|
--<>12--0--------0--------0-----4----------------------|
-----------------------------------------------<>19----|
-------------------------------------------------------|
-----5--------------------------5----------------------|


  |--3--|  |--3--|  |--3--|                  
  E  E  E  E  E  E  E  E  E  Q    Q    Q     
-----------1--------1-------------8----7----|
--------1--------1--------1-----------------|
-----2--------2--------2--------------------|
--------------------------------------------|
--------------------------------------------|
--3--------------------------0--------------|


  ^                                                      
  |--3--|  |--3--|  |--3--|  |--3--|  |--3--|  |--3--|   
  E  E  E  E  E  E  E  E  E  E  E  E  E  E  E  E  E  E   
--5--------5--------5--------5--------5--------5--------|
--5-----5--------5--------5--------5--------5--------5--|
--------------------------------------------------------|
-----7--------7--------7--------7--------7--------7-----|
--0-----------------------------------------------------|
--------------------------------------------------------|


  ^                                                      
  |--3--|  |--3--|  |--3--|  |--3--|  |--3--|  |--3--|   
  E  E  E  E  E  E  E  E  E  E  E  E  E  E  E  E  E  E   
--5--------5--------5--------3--------3--------3--------|
--0-----0--------0--------0--------0--------0--------0--|
--0--0--------0--------0--------0--------0--------0-----|
--------------------------------------------------------|
--------------------------------------------------------|
--------------------------------------------------------|


  ^                                                  
  |--3--|  |--3--|  |--3--|  |--3--|  |--3--|        
  E  E  E  E  E  E  E  E  E  E  E  E  E  E  E  Q     
--5--------5--------5--------5--------5--------5----|
--5-----5--------5--------5--------5--------5-------|
--6--6--------6--------6--------6--------6----------|
----------------------------------------------------|
--0-------------------------------------------------|
----------------------------------------------------|


  ^                      ^                           
  |--3--|  |--3--|       |--3--|  |--3--|  |--3--|   
  E  E  E  E  E  E  Q    E  E  E  E  E  E  E  E  E   
--5--------5--------5----3--------3--------3--------|
--2-----2--------2-------3-----3--------3--------3--|
--0--0--------0----------4--4--------4--------4-----|
----------------------------------------------------|
----------------------------------------------------|
--5----------------------5--------------------------|


  ^                                 NH                           NH         
       |----3---|   |----3---|      |----3---|   |----3---|                 
  Q    E   E    E   E   E    E      E   E    E   E   E    E      Q    Q     
--5------------(5)----------(5)-------------(5)----------(5)---------------|
--5-------(5)----------(5)-------------(5)----------(5)--------------------|
--6----6------------7----------------------------6--------------------0----|
---------------------------------------------------------------------------|
--0------------------------------<>19-------------------------<>12---------|
---------------------------------------------------------------------------|


  |--3--|  |--3--|  |--3--|  |--3--|  |--3--|  |--3--|   
  E  E  E  E  E  E  E  E  E  E  E  E  E  E  E  E  E  E   
-----------5--------5--------3--------3--------3--------|
--------2--------2--------2--------3--------3--------3--|
-----0--------0--------0--------4--------4--------4-----|
--------------------------------------------------------|
--------------------------------------------------------|
--5--------------------------5--------------------------|


  ^                                 NH                           NH   ^     
       |----3---|   |----3---|      |----3---|   |----3---|                 
  Q    E   E    E   E   E    E      E   E    E   E   E    E      Q    Q     
--5------------(5)----------(5)-------------(5)----------(5)---------------|
--5-------(5)----------(5)-------------(5)----------(5)---------------7----|
--6----6------------7----------------------------6--------------------6----|
---------------------------------------------------------------------------|
--0------------------------------<>19-------------------------<>12---------|
---------------------------------------------------------------------------|


  |--3--|  |--3--|  |--3--|  |--3--|  |--3--|  |--3--|   
  E  E  E  E  E  E  E  E  E  E  E  E  E  E  E  E  E  E   
--------------------------------------------------------|
-----------------------------8--------8--------8--------|
-----------6--------6--------7-----7--------7--------7--|
--------5--------5--------5-----5--------5--------5-----|
-----5--------5--------5--------------------------------|
--5--------------------------5--------------------------|


  ^                                 NH                           NH         
       |----3---|   |----3---|      |----3---|   |----3---|                 
  Q    E   E    E   E   E    E      E   E    E   E   E    E      Q    Q     
--5------------(5)----------(5)-------------(5)----------(5)---------------|
--5-------(5)----------(5)-------------(5)----------(5)--------------------|
--6----6------------7----------------------------6--------------------0----|
---------------------------------------------------------------------------|
--0------------------------------<>19-------------------------<>12---------|
---------------------------------------------------------------------------|


                         ^       NH              
  |--3--|  |--3--|                               
  E  E  E  E  E  E  Q    Q       Q    Q    Q     
-----------5--------5----3----------------------|
--------2--------2-------3------------0---------|
-----0--------0----------4-----------------2----|
------------------------------------------------|
------------------------------<>12--------------|
--5----------------------5----------------------|


  |--3--|  |--3--|  |--3--|                  
  E  E  E  E  E  E  E  E  E  Q    Q    Q     
--------------------------------------------|
-----------1--------1-------------1---------|
--------2--------2--------2------------4----|
-----3--------3--------3--------------------|
--------------------------------------------|
--3--------------------------0--------------|


       |--3--|  |--3--|  |--3--|  |--3--|        
  Q    E  E  E  E  E  E  E  E  E  E  E  E  Q     
-------------0--------0--------0--------0--L----|
------------------------------------------------|
--2-------2--------2--------2--------2----------|
--2----2--------2--------2--------2-------------|
--0---------------------------------------------|
------------------------------------------------|


  ^                      ^                       
  |--3--|  |--3--|       |--3--|  |--3--|        
  E  E  E  E  E  E  Q    E  E  E  E  E  E  Q     
------------------------------------------------|
-------------------------3--------3--------3----|
--6--------6--------6----4-----4--------4-------|
--5-----5--------5-------5--5--------5----------|
-----5--------5---------------------------------|
--5----------------------5----------------------|


  ^                                                  
  |--3--|  |--3--|  |--3--|  |--3--|  |--3--|        
  E  E  E  E  E  E  E  E  E  E  E  E  E  E  E  Q     
-----------5--------5--------5--------5--------5----|
--5-----5--------5--------5--------5--------5-------|
--6--6--------6--------6--------6--------6----------|
----------------------------------------------------|
--0-------------------------------------------------|
----------------------------------------------------|


  ^                      ^                       
  |--3--|  |--3--|       |--3--|  |--3--|        
  E  E  E  E  E  E  Q    E  E  E  E  E  E  Q     
--5--------5--------5----3--------3--------3----|
--2-----2--------2-------3-----3--------3-------|
--0--0--------0----------4--4--------4----------|
------------------------------------------------|
------------------------------------------------|
--5----------------------5----------------------|


     NH                                                NH      NH    
          |---3--|   |---3--|   |---3--|  |---3--|                   
     Q    E  E   E   E  E   E   E  E   E  E  E   E     Q       Q     
----------9---------10---------12---------9-------------------------|
----------------10---------10---------10--------10------------------|
-------------9----------9----------9---------9--------------<>12----|
--<>19----------------------------------------------<>19------------|
-----0--------------------------------------------------------------|
--------------------------------------------------------------------|


                         ^                         NH    
  |--3--|  |--3--|       |--3--|  |--3--|                
  E  E  E  E  E  E  Q    E  E  E  E  E  E  Q       Q     
-----------5--------5----3--------3--------3------------|
--------2--------2-------3-----3--------3---------------|
-----0--------0----------4--4--------4------------------|
------------------------------------------------<>19----|
---------------------------------------------------0----|
--5----------------------5------------------------------|


                                                    NH    
       |---3--|   |---3--|   |---3--|  |---3--|           
  Q    E  E   E   E  E   E   E  E   E  E  E   E     Q     
-------9---------10---------12---------9-----------------|
-------------10---------10---------10--------10----------|
----------9----------9----------9---------9--------------|
--L----------------------------------------------<>19----|
--L------------------------------------------------------|
---------------------------------------------------------|


                              ^                       
    |--3--|  |--3--|          |--3--|  |--3--|        
    E  E  E  E  E  E  Q       E  E  E  E  E  E  Q     
---------------------------<>12----------------------|
--<>7-------------------------0--------0--------0----|
-------------6--------6-------------0--------0-------|
----------5--------5-------------0--------0----------|
-------5--------5------------------------------------|
----5------------------------------------------------|


     NH                                                NH      NH    
          |---3--|   |---3--|   |---3--|  |---3--|                   
     Q    E  E   E   E  E   E   E  E   E  E  E   E     Q       Q     
----------9---------10---------12---------9-------------------------|
----------------10---------10---------10--------10------------------|
-------------9----------9----------9---------9--------------<>12----|
--<>19----------------------------------------------<>19------------|
-----0--------------------------------------------------------------|
--------------------------------------------------------------------|


                         ^       NH              
  |--3--|  |--3--|                               
  E  E  E  E  E  E  Q    Q       Q    Q    Q     
-----------5--------5----3------------7----5----|
-----------2--------2----0----------------------|
--------0--------0-------0----------------------|
-----0--------0---------------<>19--------------|
------------------------------------------------|
--5----------------------5----------------------|


  |--3--|  |--3--|  |--3--|                  
  E  E  E  E  E  E  E  E  E  Q    Q    Q     
----------------------------------8----7----|
--------------------------------------------|
-----------2--------2-----------------------|
--------3--------3--------3-----------------|
-----3--------3--------3--------------------|
--3--------------------------0--------------|


  ^                                              
       |--3--|  |--3--|  |--3--|  |--3--|        
  Q    E  E  E  E  E  E  E  E  E  E  E  E  Q     
--5----------5--------5--------5--------5--L----|
--5-------5--------5--------5--------5----------|
--6----6--------6--------6--------6-------------|
------------------------------------------------|
--0---------------------------------------------|
------------------------------------------------|


  ^                                              
       |--3--|  |--3--|  |--3--|  |--3--|        
  Q    E  E  E  E  E  E  E  E  E  E  E  E  Q     
--5----------5--------5--------3--------3--L----|
--0-------0--------0--------0--------0----------|
--0----0--------0--------0--------0-------------|
------------------------------------------------|
------------------------------------------------|
------------------------------------------------|


       |---3--|  |---3--|  |---3--|  |---3--|  |---3--|   
  Q    E   E  E  E   E  E  E   E  E  E   E  E  E   E  E   
--9-----------9---------9---------9---------9---------9--|
----------10--------10--------10--------10--------10-----|
-------9---------9---------9---------9---------9---------|
---------------------------------------------------------|
--0------------------------------------------------------|
---------------------------------------------------------|


       |--3--|  |--3--|  |---3--|  |---3--|  |---3---|   
  Q    E  E  E  E  E  E  E  E   E  E  E   E  E   E   E   
-------------9--------9--------10--------10-----12---L--|
----------0--------0--------0---------0-----------------|
--0----0--------0--------0---------0---------0----------|
--------------------------------------------------------|
--------------------------------------------------------|
--------------------------------------------------------|


       |--3--|  |--3--|  |--3--|  |--3--|        
  Q    E  E  E  E  E  E  E  E  E  E  E  E  Q     
-------------5--------5--------5--------5--L----|
----------5--------5--------5--------5----------|
-------6--------6--------6--------6-------------|
------------------------------------------------|
--0---------------------------------------------|
------------------------------------------------|


  |--3--|  |--3--|       |--3--|  |--3--|        
  E  E  E  E  E  E  Q    E  E  E  E  E  E  Q     
-----------5--------5----3--------3--------3----|
--------2--------2-------3-----3--------3-------|
-----0--------0----------4--4--------4----------|
------------------------------------------------|
------------------------------------------------|
--5----------------------5----------------------|


       |--3--|  |--3--|  |--3--|  |--3--|  |--3--|                        
  Q    E  E  E  E  E  E  E  E  E  E  E  E  E  E  E     W.                 
--5----------5--------5--------5--------5--------5--|-------------------||
--5-------5--------5--------5--------5--------5-----|-------------------||
--6----6--------6--------6--------6--------6--------|--6----------------||
----------------------------------------------------|-------------------||
--0-------------------------------------------------|-------------------||
----------------------------------------------------|-------------------||




Duration Legend
---------------
W - whole
H - half
Q - quarter
E - 8th
S - 16th
T - 32nd
X - 64th
. - note dotted
|-n-|  - n-tuplets


Tablature Legend
----------------
L - tied note
x - dead note
g - grace note
(n) - ghost note
> - accentuded note
NH - natural harmonic
AH - artificial harmonic 
Login or Register to remove this ad.

1 comment on Lifestream

bad ass

bad ass