Ads

Lifestream (Final Fantasy VII) Guitar Tab

Submitted: Aug 28, 2010 by Daugreano

5
Average: 5 (1 vote)
Download | Listen
Game: Final Fantasy VII
Composer(s): Nobuo Uematsu
Style: Alternate picking, Transcription
Series: Final Fantasy

AutoScroll: Slow | Medium | Fast
Song: Lifestream
Game: Final Fantasy VII
Composer: Nobuo Uematsu
Tabbed by: Daugreano

Guitar:                                                       
                                                                     6x  
                                                              |--------|
   Q    Q    Q      H.       H.       Q    Q    Q      H.       H.       Q    Q    Q
E|------3---------|-2------|-L------|----------------|--------|--------|----------------|
B|-----------3----|--------|--------|-6---------5----|-3------|-L------|----------------|
G|-L--------------|--------|--------|------5---------|--------|--------|------4----5----|
D|----------------|--------|--------|----------------|--------|--------|----------------|
A|----------------|--------|--------|----------------|--------|--------|----------------|
E|----------------|--------|--------|----------------|--------|--------|----------------|

   Q    Q    Q      H.       H.       Q    Q    Q      Q    Q    Q      H.       H.
E|----------------|--------|--------|----------------|----------------|--------|--------|
B|-3--------------|--------|--------|----------------|-3--------------|-5------|-3------|
G|------4---------|--------|--------|------4----5----|------4---------|--------|--------|
D|-----------5----|-3------|-L------|-L--------------|-----------5----|--------|--------|
A|----------------|--------|--------|----------------|----------------|--------|--------|
E|----------------|--------|--------|----------------|----------------|--------|--------|

   Q    Q    Q      Q    Q    Q      H.       Q    Q    Q      H.       Q    Q    Q
E|----------------|----------------|--------|----------------|--------|----------------|
B|-L--------------|-3--------------|--------|----------------|--------|----------------|
G|------4----5----|------4---------|--------|-----------2----|--------|------3----2----|
D|----------------|-----------5----|-3------|-3----5---------|-5------|-L--------------|
A|----------------|----------------|--------|----------------|--------|----------------|
E|----------------|----------------|--------|----------------|--------|----------------|

   H.       H.       Q    Q    Q      Q    Q    Q      H.       H.       Q    Q    Q
E|--------|--------|----------------|----------------|--------|--------|----------------|
B|--------|--------|------0----1----|-3----0---------|--------|--------|------0----1----|
G|--------|--------|----------------|-----------0----|--------|--------|----------------|
D|-5------|-L------|-L--------------|----------------|-3------|-L------|-L--------------|
A|--------|--------|----------------|----------------|--------|--------|----------------|
E|--------|--------|----------------|----------------|--------|--------|----------------|

   Q    Q    Q      H.       Q        Q    Q    Q      Q    Q    Q      H.       Q    Q    Q
E|----------------|-0------|--------|----------------|----------------|--------|----------------|
B|-3----0---------|--------|-3------|-L----0----1----|-3----0---------|--------|----------------|
G|-----------0----|--------|--------|----------------|-----------0----|--------|------0----2----|
D|----------------|--------|--------|----------------|----------------|-3------|-3--------------|
A|----------------|--------|--------|----------------|----------------|--------|----------------|
E|----------------|--------|--------|----------------|----------------|--------|----------------|

   H.       Q    Q    Q      H.
E|--------|----------------|--------|
B|--------|----------------|--------|
G|-0------|-L----3----2----|-0------|
D|--------|----------------|--------|
A|--------|----------------|--------|
E|--------|----------------|--------|

Then repeat...

Login or Register to remove this ad.

1 comment on Lifestream

Amazin tab !

5

Perfect to me