Ads

Life Stream (Final Fantasy VII) Guitar Tab

Submitted: Apr 24, 2010 by Brainsick Fungus

5
Average: 5 (2 votes)
Download | Listen
Game: Final Fantasy VII
Composer(s): Nobuo Uematsu
Style: Transcription
Series: Final Fantasy

Click here for a video example.

AutoScroll: Slow | Medium | Fast

Life Stream
By Nobuo Uematsu
Final Fantasy VII
Tabbed by Brainsick Fungus
01/02/10

e-15-10-14---13-8-12-10----------------------------------------------|
B------------------------------10--13--10-13s15-15-------------------|
G---------------------------7----------------------------------------|
D--------------------------------------------------------------------|
A--------------------------------------------------------------------|
E--------------------------------------------------------------------|

e-7-8-10-7-------7-8-10-7---12--10---7-8-10-7-----------5-----6-5----|
B----------8-6------------8-------------------8-6---6-8---8-------8--|
G--------------------------------------------------------------------|
D--------------------------------------------------------------------|x2
A--------------------------------------------------------------------|
E--------------------------------------------------------------------|
Login or Register to remove this ad.

1 comment on Life Stream

Whoa...

5

Sounds just like it.