Ads

Judgment Day (Final Fantasy VII) Bass/Guitar Tab

Submitted: Dec 18, 2012 by hashel (Last updated: Dec 19, 2012)

5
Average: 5 (1 vote)
Download | Listen
Game: Final Fantasy VII
Composer(s): Nobuo Uematsu
Style: 2 or more instruments, Transcription
Series: Final Fantasy

AutoScroll: Slow | Medium | Fast
Title: Judgment Day
Artist: Nobuo Uematsu
Album: FF7 OST
Music: Nobuo Uematsu
Copyright: Squaresoft
Tabber: Hashel05
Tempo = 150


Guitar

E |----|----|----|----|----------------|-------|----------------|-------|
B |----|----|----|----|----------------|-------|----------------|-------|
G |----|----|----|----|-----------7----|--6L---|--6--------7----|--9L---|
D |----|----|----|----|-----------7----|--6L---|--6--------7----|--9L---|
A |----|----|----|----|-----------5----|--4L---|--4--------5----|--7L---|
E |----|----|----|----|----------------|-------|----------------|-------|


----------|-------|-------|-------|----------------|-------|----------------|
----------|-------|-------|-------|----------------|-------|----------------|
--9--7----|--4L---|--4L---|--4----|-----------7----|--6L---|--6--------7----|
--9--7----|--4L---|--4L---|--4----|-----------7----|--6L---|--6--------7----|
--7--5----|--2L---|--2L---|--2----|-----------5----|--4L---|--4--------5----|
----------|-------|-------|-------|----------------|-------|----------------|


-------|----------|-------|-------|-------|----|----------|----------------|
-------|----------|-------|-------|-------|----|----------|----------------|
--9L---|--9--10---|--11L--|--11L--|--11---|----|----------|-----------9----|
--9L---|--9--10---|--11L--|--11L--|--11---|----|-----9----|--11-12---------|
--7L---|--7--8----|--9L---|--9L---|--9----|----|----------|----------------|
-------|----------|-------|-------|-------|----|----------|----------------|


----------------|-------|----------|----------------|----------|-------|----|
-----14---------|-------|----------|-----------12---|--14-15L--|--15---|----|
--11----14L-----|--14---|-----11---|--12-14---------|----------|-------|----|
----------------|-------|----------|----------------|----------|-------|----|
----------------|-------|----------|----------------|----------|-------|----|
----------------|-------|----------|----------------|----------|-------|----|


----|----|----|----------|----------------|----------------|-------|----------|
----|----|----|--14------|-----------12---|--14-15-12L-----|--12---|--14------|
----|----|----|-----14L--|--14-11-14------|----------------|-------|-----14L--|
----|----|----|----------|----------------|----------------|-------|----------|
----|----|----|----------|----------------|----------------|-------|----------|
----|----|----|----------|----------------|----------------|-------|----------|


----------------|----------------|-------|----|----|
----------------|--10-12---------|-------|----|----|
--14-11-13-14---|--------12L-----|--12---|----|----|
----------------|----------------|-------|----|----|
----------------|----------------|-------|----|----|
----------------|----------------|-------|----|----|


----------------------------|----------------|-------|----------------|
----------------------------|--------10------|--10L--|--10------------|
--12-------11-9L------------|--9--9-----12---|-------|----------------|
----------------------------|----------------|-------|----------------|
----------------------------|----------------|-------|----------------|
----------------------------|----------------|-------|----------------|


----------------------------|----------------|-------|-------|-------|
--10-------9----------------|--------12-10---|--12L--|--12L--|--12---|
--------------11L-----------|--11-11---------|-------|-------|-------|
----------------------------|----------------|-------|-------|-------|
----------------------------|----------------|-------|-------|-------|
----------------------------|----------------|-------|-------|-------|


----------------|-------|----------------|----------------|----------------|
----------------|-------|----------------|-----14---------|--------12-14---|
----------------|-------|-----------9----|--11----14L-----|--14------------|
--------9--11---|--12L--|--12----12------|----------------|----------------|
----------------|-------|----------------|----------------|----------------|
----------------|-------|----------------|----------------|----------------|


----------|--------------12------------|----------|-------|-------|
--15-12L--|--12-------------15----14---|--15-12L--|--12L--|--12---|
----------|----------------------------|----------|-------|-------|
----------|----------------------------|----------|-------|-------|
----------|----------------------------|----------|-------|-------|
----------|----------------------------|----------|-------|-------|


----------------|----------|-------|-------|--------------12------------|
--------12-14---|--15-12L--|--12L--|--12---|-----------------15----14---|
----------------|----------|-------|-------|----------------------------|
----------------|----------|-------|-------|----------------------------|
----------------|----------|-------|-------|----------------------------|
----------------|----------|-------|-------|----------------------------|


-------|-------|-------|-------|----|----|----|----|----||
--15L--|--15L--|--15L--|--15---|----|----|----|----|----||
-------|-------|-------|-------|----|----|----|----|----||
-------|-------|-------|-------|----|----|----|----|----||
-------|-------|-------|-------|----|----|----|----|----||
-------|-------|-------|-------|----|----|----|----|----||



Bass



G |----|----------------------------|----------------------------|
D |----|----------------------------|----------------------------|
A |----|--2-----------2-------------|--2-------------------------|
E |----|----------------------------|----------------------------|


----------------------------|----------------------------|
----------------------------|----------------------------|
--2-----------2-------------|--2-------------------------|
----------------------------|----------------------------|


----------------------------|----------------------------|
----------------------------|----------------------------|
--2-----------2-------------|--2-------------------------|
----------------------------|----------------------------|


----------------------------|----------------------------|
----------------------------|----------------------------|
--2-----------2-------------|--2-------------------------|
----------------------------|----------------------------|


----------------------------|----------------------------|
----------------------------|----------------------------|
--2-----------2-------------|--2-------------------------|
----------------------------|----------------------------|


----------------------------|----------------------------|
----------------------------|----------------------------|
--2-----------2-------------|--2-------------------------|
----------------------------|----------------------------|


----------------------------|----------------------------|
----------------------------|----------------------------|
--2-----------2-------------|--2-------------------------|
----------------------------|----------------------------|


----------------------------|----------------------------|
----------------------------|----------------------------|
--2-----------2-------------|--2-------------------------|
----------------------------|----------------------------|


----------------------------|----------------------------|
----------------------------|----------------------------|
--2-----------2-------------|--2-------------------------|
----------------------------|----------------------------|


----------------------------|----------------------------|
----------------------------|----------------------------|
--2-----------2-------------|--2-------------------------|
----------------------------|----------------------------|


----------------------------|----------------------------|
----------------------------|----------------------------|
--2-----2--2--2-----2--2----|--2-----2--2--2-----2--2----|
----------------------------|----------------------------|


----------------------------|----------------------------|
----------------------------|----------------------------|
--0-----0--0--0-----0--0----|--0-----0--0--0-----0--0----|
----------------------------|----------------------------|


----------------------------|----------------------------|
--2-----2--2--2-----2--2----|--2-----2--2--2-----2--2----|
----------------------------|----------------------------|
----------------------------|----------------------------|


----------------------------|----------------------------|
----------------------------|----------------------------|
--2-----2--2--2-----2--2----|--2-----2--2--2-----2--2----|
----------------------------|----------------------------|


----------------------------|----------------------------|
----------------------------|----------------------------|
--2-----2--2--2-----2--2----|--2-----2--2--2-----2--2----|
----------------------------|----------------------------|


----------------------------|----------------------------|
----------------------------|----------------------------|
--2-----2--2--2-----2--2----|--2-----2--2--2-----2--2----|
----------------------------|----------------------------|


----------------------------|----------------------------|
----------------------------|----------------------------|
----------------------------|----------------------------|
--2-----2--2--2-----2--2----|--2-----2--2--2-----2--2----|


----------------------------|----------------------------|
----------------------------|----------------------------|
----------------------------|----------------------------|
--3-----3--3--3-----3--3----|--3-----3--3--3-----3--3----|


----------------------------|----------------------------|
----------------------------|----------------------------|
----------------------------|----------------------------|
--2-----2--2--2-----2--2----|--2-----2--2--2-----2--2----|


----------------------------|----------------------------|
--2-----2--2--2-----2--2----|--2-----2--2--2-----2--2----|
----------------------------|----------------------------|
----------------------------|----------------------------|


----------------------------|----------------------------|
--2-----2--2--2-----2--2----|--2-----2--2--2-----2--2----|
----------------------------|----------------------------|
----------------------------|----------------------------|


----------------------------|----------------------------|
----------------------------|----------------------------|
--3-----3--3--3-----3--3----|--3-----3--3--3-----3--3----|
----------------------------|----------------------------|


----------------------------|----------------------------|
----------------------------|----------------------------|
----------------------------|----------------------------|
--1-----1--1--1-----1--1----|--1-----1--1--1-----1--1----|


----------------------------|----------------------------|
----------------------------|----------------------------|
----------------------------|----------------------------|
--2-----2--2--2-----2--2----|--2-----2--2--2-----2--2----|


----------------------------|----------------------------|
----------------------------|----------------------------|
----------------------------|----------------------------|
--3-----3--3--3-----3--3----|--3-----3--3--3-----3--3----|


----------------------------|----------------------------|
----------------------------|----------------------------|
----------------------------|----------------------------|
--3-----3--3--3-----3--3----|--3-----3--3--3-----3--3----|


----------------------------|----------------------------|
----------------------------|----------------------------|
--2-----2--2--2-----2--2----|--2-----2--2--2-----2--2----|
----------------------------|----------------------------|


----------------------------|----------------------------|
----------------------------|----------------------------|
--0-----0--0--0-----0--0----|--0-----0--0--0-----0--0----|
----------------------------|----------------------------|


----------------------------|----------------------------|
----------------------------|----------------------------|
----------------------------|----------------------------|
--3-----3--3--3-----3--3----|--3-----3--3--3-----3--3----|


----------------------------|----------------------------|
----------------------------|----------------------------|
--2-----2--2--2-----2--2----|--2-----2--2--2-----2--2----|
----------------------------|----------------------------|


----------------------------|----------------------------|
----------------------------|----------------------------|
--2-----2--2--2-----2--2----|--2-----2--2--2-----2--2----|
----------------------------|----------------------------|


----------------------------|----------------------------|
----------------------------|----------------------------|
----------------------------|----------------------------|
--3-----3--3--3-----3--3----|--3-----3--3--3-----3--3----|


----------------------------|----------------------------|
----------------------------|----------------------------|
----------------------------|----------------------------|
--3-----3--3--3-----3--3----|--3-----3--3--3-----3--3----|


----------------------------|----------------------------|
----------------------------|----------------------------|
--0-----0--0--0-----0--0----|--0-----0--0--0-----0--0----|
----------------------------|----------------------------|


----------------------------|----------------------------|
----------------------------|----------------------------|
--0-----0--0--0-----0--0----|--0-----0--0--0-----0--0----|
----------------------------|----------------------------|


----------------------------|----------------------------|-------|-------|----||
----------------------------|----------------------------|-------|-------|----||
--2-----2--2--2-----2--2----|--2-----2--2--2-----2--2----|-------|-------|----||
----------------------------|----------------------------|-------|-------|----||
Login or Register to remove this ad.