Ads

JENOVA (Final Fantasy VII) Guitar Tab

Submitted: Oct 11, 2019 by Strings805 (Last updated: Nov 16, 2019)

0
Download | Listen
Game: Final Fantasy VII
Composer(s): Nobuo Uematsu
Style: Alternate picking, Arrangement
Series: Final Fantasy

Click here for a video example.

AutoScroll: Slow | Medium | Fast
Gnarly Arpeggios

E  :18-17----------------------------------|
B  :------18-------------------------------|
G  :---------19----------------------------|
D  :------------20-19----------------------|
A  :------------------20-17----------------|
E  :---------------------------------------|

E  :16-13------------------------------------------|
B  :------14-13------------------------------------|
G  :------------13-10------------------------------|
D  :------------------11-10------------------------|
A  :-----------------------------------------------|
E  :-----------------------------------------------|

E  :16-15----------------------------------|
B  :------16-------------------------------|
G  :---------17----------------------------|
D  :------------18-17----------------------|
A  :------------------18-15----------------|
E  :---------------------------------------|

(This last one plays at the end of the chorus)

E  :16-15--------------------------------|
B  :------17-----------------------------|
G  :---------17--------------------------|
D  :------------18-17--------------------|
A  :------------------19-15--------------|
E  :-------------------------------------|

Main Melody

E  :-----------------------------------------------|
B  :------------------------------------11----13---|
G  :10----12-13----------------10-12-13------------|
D  :-----------------------------------------------|
A  :-----------------------------------------------|
E  :-----------------------------------------------|

E  :---------------------------------------|
B  :13-------12-10-------13-12-10----------|
G  :---------------------------------------|
D  :------------------------------10-12-14-|
A  :---------------------------------------|
E  :---------------------------------------|

E  :-------------------------------------|
B  :11-------10--8-------11-10-8---------|
G  :-------------------------------------|
D  :-----------------------------8-10-12-|---------------------------|
A  :-------------------------------------|
E  :-------------------------------------|


(This plays during the chorus)

E :-----------------------------|
B :-----------------------------|
G :10---6-8-10-13-12-10-------|
D: -----------------------12----|
A: -----------------------------|
E: -----------------------------|

E  :-------------------------------|
B  :13---9-11-13-16-15-13------13|
G  :----------------------15--15---|
D  :-------------------------------|
A  :-------------------------------|
E  :-------------------------------|

Accompanying Melody

Harmony 1

E  :---------------------------------------|
B  :15-13-15-13----------------------------|
G  :------------14-14-14-14----------------|
D  :---------------------------------------|
A  :---------------------------------------|
E  :---------------------------------------|

E  :------------13-12-13-12------------------------|
B  :15-13-15-13-------------15-13-15-13------------|
G  :------------------------------------14-14-14-14|
D  :-----------------------------------------------|
A  :-----------------------------------------------|
E  :-----------------------------------------------|

E  :---------------------------------------|
B  :---------------------------------------|
G  :13-12-13-12----------------------------|
D  :------------15-15-15-15----------------|
A  :---------------------------------------|
E  :---------------------------------------|


Harmony 2

E  :---------------------------------------|
B  :18-17-18-17----------------------------|
G  :------------19-17-19-17----------------|
D  :---------------------------------------|
A  :---------------------------------------|
E  :---------------------------------------|

E  :------------17-15-17-15------------------------|
B  :18-17-18-17-------------18-17-18-17------------|
G  :------------------------------------19-17-19-17|
D  :-----------------------------------------------|
A  :-----------------------------------------------|
E  :-----------------------------------------------|

E  :---------------------------------------|
B  :13-11-13-11----------------------------|
G  :------------13-12-13-12----------------|
D  :---------------------------------------|
A  :---------------------------------------|
E  :---------------------------------------|
Login or Register to remove this ad.