Ads

JENOVA (Final Fantasy VII) Guitar Tab

Submitted: Nov 08, 2010 by BacardiBreezer

5
Average: 5 (2 votes)
Download | Listen
Game: Final Fantasy VII
Composer(s): Nobuo Uematsu
Style: Alternate picking, Transcription
Series: Final Fantasy

AutoScroll: Slow | Medium | Fast
"JENOVA"
Final Fantasy 7
Composer: Nobuo Uematsu
Tabbed by: BacardiBreezer
11/8/10

e|----------------------------------------------------------------------|
B|----------------------------------------------------------------------|
G|--7---9-10----7--9--10---12--14---------------------------------------|
D|----------------------------------------------------------------------|
A|----------------------------------------------------------------------|
E|----------------------------------------------------------------------|

e|----------------------------------------------------------------------|
B|--6---8-9----6--8--9--11--13------------------------------------------|
G|----------------------------------------------------------------------|
D|----------------------------------------------------------------------|
A|----------------------------------------------------------------------|
E|----------------------------------------------------------------------|

e|----------------------------------------------------------------------|
B|--13---12-10-----13---12-10----------5--------------------------------|
G|-------------------------------5--7-----------------------------------|
D|----------------------------------------------------------------------|
A|----------------------------------------------------------------------|
E|----------------------------------------------------------------------|

e|----------------------------------------------------------------------|
B|----------------------------------------------------------------------|
G|--15--14--12-----15--14--12----------7--------------------------------|
D|------------------------------8--10-----------------------------------|
A|----------------------------------------------------------------------|
E|----------------------------------------------------------------------|



e|----------------------------------------------------------------------|
B|--------------8--10-----13--12---10-----------------------------------|
G|---14-----10--------------------------12------------------------------|
D|----------------------------------------------------------------------|
A|----------------------------------------------------------------------|
E|----------------------------------------------------------------------|

e|----------------------------------------------------------------------|
B|-------------11--13----16--15---13---------------13-------------------|
G|---17-----13-------------------------15------15-----------------------|
D|----------------------------------------------------------------------|
A|----------------------------------------------------------------------|
E|----------------------------------------------------------------------|
Login or Register to remove this ad.

2 comments on JENOVA

oops

5

shit, thought id rated this before, sorry BB

awesome tab, easy and very accurate.

This is the first tab that

5

This is the first tab that I've ever learned, and it sounds amazing. Thank you!