Ads

J-E-N-O-V-A (Final Fantasy VII) Guitar Tab

Submitted: Feb 21, 2014 by TheDoomOfAllFires

5
Average: 5 (3 votes)
Download | Listen
Game: Final Fantasy VII
Composer(s): Nobuo Uematsu
Style: 2 or more instruments, Arrangement
Series: Final Fantasy

AutoScroll: Slow | Medium | Fast
"J-E-N-O-V-A" from Final Fantasy VII
Composer : Nobuo Uematsu
Tabber : TheDoomOfAllFires
BPM : 75 (first 2 measures) to 120
Tuning : Guitar #1 : Standard EADGBE / Guitars #2 & 3 : Drop D DADGBE


Guitar #1

E |--6h-5----------------------|--6h-5----------------------|
B |--------6L-6----------------|--------6-------------------|
G |-----------7----------------|-----------7----------------|
D |--------------8h-7-----0----|--------------8h-7-----0----|
A |--------------------8-------|--------------------8-------|
E |----------------------------|----------------------------|


--6h-5----------------------|--6h-5----------------------|
--------6-------------------|--------6-------------------|
-----------7----------------|-----------7----------------|
--------------8h-7-----0----|--------------8h-7-----0----|
--------------------8-------|--------------------8-------|
----------------------------|----------------------------|


--6h-5----------------------|--6h-5----------------------|
--------6-------------------|--------6L-6----------------|
-----------7----------------|-----------7----------------|
--0-----------8h-7-----0----|--------------8h-7-----0----|
--------------------8-------|--------------------8-------|
----------------------------|----------------------------|


--6h-5----------------------|--6h-5----------------------|
--------6-------------------|--------6L-6----------------|
-----------7----------------|-----------7----------------|
--0-----------8h-7-----0----|--------------8h-7-----0----|
--------------------8-------|--------------------8-------|
----------------------------|----------------------------|


--6h-5----------------------|--6h-5----------------------|
--------6-------------------|--------6L-6----------------|
-----------7----------------|-----------7----------------|
--0-----------8h-7-----0----|--------------8h-7-----0----|
--------------------8-------|--------------------8-------|
----------------------------|----------------------------|


--6h-5----------------------|--6h-5----------------------|
--------6-------------------|--------6L-6----------------|
-----------7----------------|-----------7----------------|
--0-----------8h-7-----0----|--------------8h-7-----0----|
--------------------8-------|--------------------8-------|
----------------------------|----------------------------|


--6h-5----------------------|--6h-5----------------------|
--------6-------------------|--------6L-6----------------|
-----------7----------------|-----------7----------------|
--0-----------8h-7-----0----|--------------8h-7-----0----|
--------------------8-------|--------------------8-------|
----------------------------|----------------------------|


--6h-5----------------------|--6h-5----------------------|
--------6-------------------|--------6L-6----------------|
-----------7----------------|-----------7----------------|
--0-----------8h-7-----0----|--------------8h-7-----0----|
--------------------8-------|--------------------8-------|
----------------------------|----------------------------|


--6h-5----------------------|--6h-5----------------------|
--------6-------------------|--------6L-6----------------|
-----------7----------------|-----------7----------------|
--0-----------8h-7-----0----|--------------8h-7-----0----|
--------------------8-------|--------------------8-------|
----------------------------|----------------------------|


--6h-5----------------------|--6h-5----------------------|
--------6-------------------|--------6L-6----------------|
-----------7----------------|-----------7----------------|
--0-----------8h-7-----0----|--------------8h-7-----0----|
--------------------8-------|--------------------8-------|
----------------------------|----------------------------|


--6h-5----------------------|--6h-5----------------------|
--------6-------------------|--------6L-6----------------|
-----------7----------------|-----------7----------------|
--0-----------8h-7-----0----|--------------8h-7-----0----|
--------------------8-------|--------------------8-------|
----------------------------|----------------------------|


--6h-5----------------------|--6h-5----------------------|
--------6-------------------|--------6L-6----------------|
-----------7----------------|-----------7----------------|
--0-----------8h-7-----0----|--------------8h-7-----0----|
--------------------8-------|--------------------8-------|
----------------------------|----------------------------|


--9h-8----------------------|--9h-8----------------------|
--------9-------------------|--------9-------------------|
-----------10---------------|-----------10---------------|
--------------11h10---------|--------------11h10---------|
--------------------11h8----|--------------------11h8----|
----------------------------|----------------------------|


--9h-8----------------------|--9h-8----------------------|
--------9-------------------|--------9-------------------|
-----------10---------------|-----------10---------------|
--------------11h10---------|--------------11h10---------|
--------------------11h8----|--------------------11h8----|
----------------------------|----------------------------|


--8-------------------------|--8-------------------------|
-----8----------------------|-----8----------------------|
--------8-------------------|--------8-------------------|
-----------10---------------|-----------10---------------|
--------------11h10---------|--------------11h10---------|
--------------------11h8----|--------------------11h8----|


--8-------------------------|--8-------------------------|
-----8----------------------|-----8----------------------|
--------8-------------------|--------8-------------------|
-----------10---------------|-----------10---------------|
--------------11h10---------|--------------11h10---------|
--------------------11h8----|--------------------11h8----|


--8h-7----------------------|--8h-7----------------------|
--------10------------------|--------10------------------|
-----------9----------------|-----------9----------------|
--------------10h9----------|--------------10h9----------|
--------------------12h7----|--------------------12h7----|
----------------------------|----------------------------|


--8h-7----------------------|--8h-7----------------------|
--------10------------------|--------10------------------|
-----------9----------------|-----------9----------------|
--------------10h9----------|--------------10h9----------|
--------------------12h7----|--------------------12h7----|
----------------------------|----------------------------|


--8h-7----------------------|--8h-7----------------------|
--------8-------------------|--------8-------------------|
-----------9----------------|-----------9----------------|
--------------10h9----------|--------------10h9----------|
--------------------10h7----|--------------------10h7----|
----------------------------|----------------------------|


--8h-7----------------------|--8h-7----------------------|
--------8-------------------|--------8-------------------|
-----------9----------------|-----------9----------------|
--------------10h9----------|--------------10h9----------|
--------------------10h7----|--------------------10h7----|
----------------------------|----------------------------|


--6h-5----------------------|--6h-5----------------------|
--------8-------------------|--------8L-8----------------|
-----------7----------------|-----------7----------------|
--------------8h-7-----0----|--------------8h-7-----0----|
--------------------10------|--------------------10------|
----------------------------|----------------------------|


--6h-5----------------------|--6h-5----------------------|
--------8-------------------|--------8L-8----------------|
-----------7----------------|-----------7----------------|
--------------8h-7-----0----|--------------8h-7-----0----|
--------------------10------|--------------------10------|
----------------------------|----------------------------|


--5-------------------------|--5-------------------------|
-----6h-3-------------------|-----6h-3-------------------|
-----------3h-2-------------|-----------3h-2-------------|
-----------------3h-0-------|-----------------3h-0-------|
-----------------------0----|-----------------------0----|
----------------------------|----------------------------|


--5-------------------------|--5-------------------------|
-----6h-3-------------------|-----6h-3-------------------|
-----------3h-2-------------|-----------3h-2-------------|
-----------------3h-0-------|-----------------3h-0-------|
-----------------------0----|-----------------------0----|
----------------------------|----------------------------|


--5-------------------------|-----------1--------1-------|
--6-----6--------6----------|--------1--------1----------|
-----5--------5--------5----|-----2--------2-------------|
-----------7--------7-------|--3-------------------------|
----------------------------|----------------------------|
----------------------------|----------------------------|


--7--------7--------7-------|--7--------7--------7-------|
-----8--------8--------8----|-----8--------8-------------|
--------7--------7----------|--------7--------7----------|
----------------------------|----------------------------|
----------------------------|----------------------------|
--3-------------------------|----------------------------|


--5-------------------------|--5-------------------------|
-----6h-5-------------------|-----6h-5-------------------|
-----------5h-2-------------|-----------5h-2-------------|
-----------------3h-2-------|-----------------3h-2-------|
-----------------------3----|-----------------------3----|
----------------------------|----------------------------|


--5-------------------------|--5-------------------------|-------|-------||
-----6h-5-------------------|-----6h-5-------------------|-------|-------||
-----------5h-2-------------|-----------5h-2-------------|-------|-------||
-----------------3h-2-------|-----------------3h-2-------|-------|-------||
-----------------------3----|-----------------------3----|--0L---|--0----||
----------------------------|----------------------------|-------|-------||

__________________________________________________________

Guitar #2

E |----|----|----|----|----|----|--6h-5-----------6-----5----|
B |----|----|----|----|----|----|--------6-----6-----6-------|
G |----|----|----|----|----|----|-----------7----------------|
D |----|----|----|----|----|----|----------------------------|
A |----|----|----|----|----|----|----------------------------|
D |----|----|----|----|----|----|----------------------------|


-----------6-----------5----|----------------------------|
-----3--6--------3--6-------|----------------------------|
----------------------------|--------------3h-2----------|
--0-----------0-------------|-----3-----3--------3h-0----|
----------------------------|--5-----5-------------------|
----------------------------|--0-------------------------|


----------------------------|----------------------------|
----------------------------|----------------------------|
-----2--3h-2-----------3----|--2-----------3-------------|
--3-----------3h-0--3-------|--3--------3-----3-----3----|
----------------------------|--5-----5-----------5-------|
----------------------------|--0-------------------------|


----------------------------|----------------------------|
----------------------------|----------------------------|
-----------3-----------2----|--------------3h-2----------|
--------3-----------3-------|-----3-----3--------3h-0----|
-----5-----------5----------|--5-----5-------------------|
--0-----------0-------------|----------------------------|


----------------------------|----------------------------|
--------------------3-------|----------------------------|
-----2--3h-2-----------3----|--2-----------3--------2----|
--3-----------3h-0----------|--0--------3--------3-------|
----------------------------|--------5--------5----------|
----------------------------|--0-------------------------|


----------------------------|----------------------------|
----------------------------|----------------------------|
-----------3-----------2----|--------------3h-2----------|
--------3-----------3-------|-----3-----3--------3h-0----|
-----5-----------5----------|--5-----5-------------------|
--0-----------0-------------|--0-------------------------|


----------------------------|----------------------------|
----------------------------|----------------------------|
-----2--3h-2-----------3----|--2-----------3-------------|
--3-----------3h-0--3-------|--3--------3-----3-----3----|
----------------------------|--5-----5-----------5-------|
----------------------------|--0-------------------------|


----------------------------|----------------------------|
----------------------------|----------------------------|
-----------3-----------2----|--------------3h-2----------|
--------3-----------3-------|-----3-----3--------3h-0----|
-----5-----------5----------|--5-----5-------------------|
--0-----------0-------------|----------------------------|


----------------------------|----------------------------|
--------------------3-------|----------------------------|
-----2--3h-2-----------3----|--2-----------3--------2----|
--3-----------3h-0----------|--0--------3--------3-------|
----------------------------|--------5--------5----------|
----------------------------|--0-------------------------|


----------------------------|----------------------------|
----------------------------|--------------2h-1----------|
-----------3-----------2----|-----1-----1--------1-------|
--------3-----------3-------|--3-----3--------------3----|
-----5-----------5----------|----------------------------|
--0-----------0-------------|----------------------------|


----------------------------|----------------------------|
-----1--2h-1-----------2----|--------------2-------------|
--1-----------1-----1-------|--------1--------1-----1----|
-----------------3----------|-----3-----3--------3-------|
----------------------------|----------------------------|
--3-------------------------|--3-------------------------|


----------------------------|----------------------------|
-----------2--------2h-1----|----------------------------|
--------1--------1----------|--------------1h-0----------|
-----3--------3-------------|-----1-----1--------1-------|
----------------------------|--3-----3--------------3----|
--3-------------------------|----------------------------|


----------------------------|----------------------------|
----------------------------|----------------------------|
-----0--1h-0-----------1----|--0-----------1--------0----|
--1-----------1-----1-------|-----------1--------1-------|
-----------------3----------|--------3--------3----------|
----------------------------|----------------------------|


----------------------------|----------------------------|
----------------------------|----------------------------|
--------1-----------0-------|----------------------------|
-----1-----1-----1----------|--------------3--2----------|
--3-----------3-------------|--0--3--0--3--------3--0----|
----------------------------|----------------------------|


----------------------------|----------------------------|
----------------------------|----------------------------|
----------------------------|----------------------------|
-----2--3--2-----------3----|--2--------3--2--------2----|
--3-----------3--0--3-------|-----0--3--------0--3-------|
----------------------------|----------------------------|


----------------------------|----------------------------|
----------------------------|--------------1--0----------|
----------------------------|-----0-----0--------0-------|
-----------3--2--------2----|--2-----2--------------2----|
-----0--3--------0--3-------|----------------------------|
----------------------------|----------------------------|


----------------------------|----------------------------|
-----0--1--0-----------1----|--0-----------1--------0----|
--0-----------0-----0-------|-----------0-----0----------|
-----------------2----------|--------------------2-------|
----------------------------|----------------------------|
----------------------------|--------2-------------------|


----------------------------|----------------------------|
-----------1-----------0----|--------------4--3----------|
--------0-----------0-------|--0--3--0--3--------0--3----|
-----2-----------2----------|----------------------------|
----------------------------|----------------------------|
--2-----------2-------------|--5-------------------------|


----------------------------|----------------------------|
--3--4--3-----------4-------|-----------4-----------3----|
-----------3--0--3-----3----|-----0--3--------0--3-------|
----------------------------|----------------------------|
----------------------------|----------------------------|
----------------------------|--5-----------5-------------|


----------------------------|----------------------------|
-----------4----------------|----------------------------|
-----0--3-----0--3--2--3----|--------------3--2----------|
----------------------------|--0--3--0--3--------3-------|
----------------------------|--0--------------------0----|
--5-------------------------|----------------------------|


----------------------------|----------------------------|
----------------------------|----------------------------|
-----2--3--2-----------3----|--2-----2--------2--3--2----|
--3-----------3--0--3-------|--0--3-----0--3-------------|
----------------------------|----------------------------|
----------------------------|----------------------------|


----------------------------|
----------------------------|
--------3-----------2-------|
--0--3-----3--0--3-----3----|
----------------------------|
----------------------------|


----------------------------------------------------|----------------|-------|
----------------------------------------------------|----------------|-------|
----------------------------------------------------|----------------|-------|
----------------------------------------------------|----------------|-------|
----------------------------------------------------|----------------|-------|
--3-----------------3-----------------3L-3----------|-----------3----|--5----|


----|----|----|----|----|-------|-------||
----|----|----|----|----|-------|-------||
----|----|----|----|----|-------|-------||
----|----|----|----|----|-------|-------||
----|----|----|----|----|--0L---|--0----||
----|----|----|----|----|-------|-------||

__________________________________________________________

Guitar #3

E |----|----|----|----|----|----|----|----|----|----|----|----|----|----|----|
B |----|----|----|----|----|----|----|----|----|----|----|----|----|----|----|
G |----|----|----|----|----|----|----|----|----|----|----|----|----|----|----|
D |----|----|----|----|----|----|----|----|----|----|----|----|----|----|----|
A |----|----|----|----|----|----|----|----|----|----|----|----|----|----|----|
D |----|----|----|----|----|----|----|----|----|----|----|----|----|----|----|

       n
----|----------------|-------|----------------|----------|-------|----|-------|
----|----------------|-------|----------------|----------|-------|----|-------|
----|----------------|-------|----------------|-----0----|--2----|----|-------|
----|--0--------2----|--3----|--------0--2----|--3-------|--0----|----|-------|
----|--0-------------|-------|--0-------------|----------|-------|----|-------|
----|--0-------------|-------|--0-------------|----------|--0----|----|--0----|


----|----------------|-------|----------------|----------|-------|----|-------|
----|----------------|-------|----------------|----------|-------|----|-------|
----|-----------0----|--1----|-----------0----|--1--3----|--5----|----|-------|
----|--3-------------|-------|--------3-------|----------|--5----|----|-------|
----|----------------|-------|--3-------------|----------|--3----|----|--3----|
----|--3-------------|-------|--3-------------|----------|-------|----|-------|


----|--8--------7----|--5----|-----8--7--5----|----------|-------|
----|----------------|-------|----------------|----------|--5----|
----|----------------|-------|----------------|--5--7----|--4----|
----|----------------|-------|----------------|----------|-------|
----|--0-------------|-------|--0-------------|----------|-------|
----|----------------|-------|----------------|----------|-------|


-----------------------------------------------5----|--7-------------|----|
--------------------------------------5--7--8-------|----------------|----|
--0-------------------------------------------------|----------------|----|
--2-------------------------------------------------|----------------|----|
----------------------------------------------------|----------------|----|
----------------------------------------------------|-----2----------|----|


--6--------5----|--3----|-----6--5--3----|----------|----------------|
----------------|-------|----------------|-----1----|--3-------------|
----------------|-------|----------------|--3-------|----------------|
----------------|-------|----------------|----------|--3--------2----|
----------------|-------|----------------|----------|----------------|
----------------|-------|--5-------------|----------|----------------|


-----------------------------------------0--1--3----|--5-------------|----|
--------------------------------------3-------------|----------------|----|
----------------------------------------------------|----------------|----|
--0-------------------------------------------------|----------------|----|
----------------------------------------------------|----------------|----|
----------------------------------------------------|-----0----------|----|


--5--------5----------------|--------1--3--5-----8-------|
--6--------6----------------|----------------------------|
--5--------5----------------|----------------------------|
--3-------------------------|----------------------------|
----------------------------|----------------------------|
----------------------------|----------------------------|


--7-----5--3L-------3-------|-----3----|--5----|----|----|----|-------|-------||
----------------------------|----------|--5----|----|----|----|-------|-------||
----------------------------|----------|-------|----|----|----|--2L---|--2----||
----------------------------|----------|-------|----|----|----|--2L---|--2----||
----------------------------|----------|--0----|----|----|----|--0L---|--0----||
----------------------------|----------|-------|----|----|----|-------|-------||

Legend
L - tied note
x - dead note
h - hammer on/pull off
b - bend
s - slide
~ - vibrato
g - ghost note
> - accentuated note
t - trill
M - palm mute
. - staccato
P - popping (bass)
S - slapping (bass)
+ - tapping
W - wide vibrato
< - fade in
w - whammy bar
= - tremolo picking
v - brush up
^ - brush down
V - pick stroke up
n - pick stroke down
Login or Register to remove this ad.