J-E-N-O-V-A (Final Fantasy VII) Bass/Guitar Tab

Submitted: Jan 28, 2014 by Shrinx

5
Average: 5 (2 votes)
Download | Listen
Game: Final Fantasy VII
Composer(s): Nobuo Uematsu
Style: 2 or more instruments, Transcription
Series: Final Fantasy

AutoScroll: Slow | Medium | Fast
J-E-N-O-V-A
Final Fantasy VII
Composed by: Nobuo Uematsu
Transcribed by: Shrinx

Gtr I - Standard Tuning (EADGBe)
Gtr II - Standard Tuning (EADGBe)
Gtr III - Standard Tuning (EADGBe)
Bass Gtr - 4 String - Standard Tuning (EADG)


Time Signature - 4/4
BPM - 180


Gtr I
    E   E   E   E   E   E   E   E
e|-18--17------------------------|
B|---------18--15----------------|
G|-----------------15--14--------|   X 20  Repeat starts on bar 13
D|-------------------------15--12|
A|-------------------------------|
E|-------------------------------|

    E   E   E   E   E   E   E   E
e|-16--13------------------------|
B|---------14--13----------------|
G|-----------------13--10--------|   X 4
D|-------------------------11--10|
A|-------------------------------|
E|-------------------------------|

    E   E   E   E   E   E   E   E
e|-16--15------------------------|
B|---------16--13----------------|
G|-----------------13--12--------|   X 4
D|-------------------------13--10|
A|-------------------------------|
E|-------------------------------|

                     H.  s  s  s  s   W                W
e|----------------|--------------10|-12-------------|--L-------------|
B|----------------|-----10-12-13---|----------------|----------------|
G|----------------|----------------|----------------|----------------|
D|----------------|----------------|----------------|----------------|
A|----------------|----------------|----------------|----------------|
E|----------------|----------------|----------------|----------------|

                     H.     s s s s   W                W
e|----------------|---------------5|--7-------------|--L-------------|
B|----------------|---------5-7-8--|----------------|----------------|
G|----------------|----------------|----------------|----------------|
D|----------------|----------------|----------------|----------------|
A|----------------|----------------|----------------|----------------|
E|----------------|----------------|----------------|----------------|

                     H.  s  s  s  s   W                W
e|----------------|----------------|-10-------------|--L-------------|
B|----------------|--------10-11-13|----------------|----------------|
G|----------------|-----12---------|----------------|----------------|
D|----------------|----------------|----------------|----------------|
A|----------------|----------------|----------------|----------------|
E|----------------|----------------|----------------|----------------|

                     H.     s s s s   W                W
e|----------------|----------------|--5-------------|--L-------------|
B|----------------|-----------5-6-8|----------------|----------------|
G|----------------|---------7------|----------------|----------------|
D|----------------|----------------|----------------|----------------|
A|----------------|----------------|----------------|----------------|
E|----------------|----------------|----------------|----------------|


e|----------------|----------------|----------------|----------------|
B|----------------|----------------|----------------|----------------|
G|----------------|----------------|----------------|----------------|
D|----------------|----------------|----------------|----------------|
A|----------------|----------------|----------------|----------------|
E|----------------|----------------|----------------|----------------|


e|----------------|----------------|----------------|----------------|
B|----------------|----------------|----------------|----------------|
G|----------------|----------------|----------------|----------------|
D|----------------|----------------|----------------|----------------|
A|----------------|----------------|----------------|----------------|
E|----------------|----------------|----------------|----------------|

E   E   E   E   E   E   E   E
e|-16--15------------------------|
B|---------17--13----------------|
G|-----------------13--12--------|   X 4
D|-------------------------14--10|
A|-------------------------------|
E|-------------------------------|



Gtr II

e|----------------|----------------|----------------|----------------|
B|----------------|----------------|----------------|----------------|
G|----------------|----------------|----------------|----------------|
D|----------------|----------------|----------------|----------------|
A|----------------|----------------|----------------|----------------|
E|----------------|----------------|----------------|----------------|


e|----------------|----------------|----------------|----------------|
B|----------------|----------------|----------------|----------------|
G|----------------|----------------|----------------|----------------|
D|----------------|----------------|----------------|----------------|
A|----------------|----------------|----------------|----------------|
E|----------------|----------------|----------------|----------------|


e|----------------|----------------|----------------|----------------|
B|----------------|----------------|----------------|----------------|
G|----------------|----------------|----------------|----------------|
D|----------------|----------------|----------------|----------------|
A|----------------|----------------|----------------|----------------|
E|----------------|----------------|----------------|----------------|

Repeat starts here
    H.        Q      W                H     Q   Q      H      H
e|----------------|----------------|----------------|----------------|
B|----------------|----------------|----------------|----------------|
G|------------9---|-10-------------|--L---------9---|-10-----12------|
D|-12-------------|----------------|-------12-------|----------------|
A|----------------|----------------|----------------|----------------|
E|----------------|----------------|----------------|----------------|

    W                W
e|----------------|----------------|----------------|----------------|
B|-10-------------|--L-------------|----------------|----------------|
G|----------------|----------------|----------------|----------------|
D|----------------|----------------|----------------|----------------|
A|----------------|----------------|----------------|----------------|
E|----------------|----------------|----------------|----------------|

    H.        Q      W                H     Q   Q      H      H
e|----------------|----------------|----------------|----------------|
B|----------------|--9-------------|--L-------------|--9-----11------|
G|-10--------12---|----------------|-------10--12---|----------------|
D|----------------|----------------|----------------|----------------|
A|----------------|----------------|----------------|----------------|
E|----------------|----------------|----------------|----------------|

    W                W
e|--8-------------|--L-------------|----------------|----------------|
B|----------------|----------------|----------------|----------------|
G|----------------|----------------|----------------|----------------|
D|----------------|----------------|----------------|----------------|
A|----------------|----------------|----------------|----------------|
E|----------------|----------------|----------------|----------------|

    H.        Q      W                Q   Q   Q   Q    H      H
e|--8---------7---|----------------|------8---7-----|----------------|
B|----------------|-10-------------|--L----------10-|----------------|
G|----------------|----------------|----------------|----------------|
D|----------------|----------------|----------------|-10-----12------|
A|----------------|----------------|----------------|----------------|
E|----------------|----------------|----------------|----------------|

    W                W
e|----------------|----------------|----------------|----------------|
B|----------------|--L-------------|----------------|----------------|
G|--9-------------|----------------|----------------|----------------|
D|----------------|----------------|----------------|----------------|
A|----------------|----------------|----------------|----------------|
E|----------------|----------------|----------------|----------------|

    H.        Q      W                Q   Q   Q   Q    H      H
e|----------------|----------------|----------------|----------------|
B|-11--------10---|----------------|-----11--10-----|----------------|
G|----------------|-12-------------|--L----------12-|----------------|
D|----------------|----------------|----------------|--8-----10------|
A|----------------|----------------|----------------|----------------|
E|----------------|----------------|----------------|----------------|

    W                W                                 H.    s s  s s 
e|----------------|----------------|----------------|----------------|
B|----------------|----------------|----------------|---------------8|
G|----------------|----------------|----------------|--------7-9-10--|
D|-12-------------|--L-------------|----------------|----------------|
A|----------------|----------------|----------------|----------------|
E|----------------|----------------|----------------|----------------|

    W               Q  E  E  Q   Q    Q  E  H    E     W
e|----------------|--------------8-|----------------|----------------|
B|-10-------------|-L-----8-10-----|-12-10--8----L--|--L-------------|
G|----------------|---10-----------|----------------|----------------|
D|----------------|----------------|----------------|----------------|
A|----------------|----------------|----------------|----------------|
E|----------------|----------------|----------------|----------------|

    W               Q  E  E  Q   Q    Q  E  H    E     H      H
e|--8-------------|-L--------8--11-|-10--8----------|----------------|
B|----------------|----9-11--------|-------11----L--|--L-----11------|
G|----------------|----------------|----------------|----------------|
D|----------------|----------------|----------------|----------------|
A|----------------|----------------|----------------|----------------|
E|----------------|----------------|----------------|----------------|

    W                W
e|--8-------------|--L-------------|----------------|----------------|
B|----------------|----------------|----------------|----------------|
G|----------------|----------------|----------------|----------------|
D|----------------|----------------|----------------|----------------|
A|----------------|----------------|----------------|----------------|
E|----------------|----------------|----------------|----------------|



Gtr III

e|----------------|----------------|----------------|----------------|
B|----------------|----------------|----------------|----------------|
G|----------------|----------------|----------------|----------------|
D|----------------|----------------|----------------|----------------|
A|----------------|----------------|----------------|----------------|
E|----------------|----------------|----------------|----------------|

    W                W               S S S S S H  E.
e|--4-------------|--L-------------|-5-5-5-5-5------|----------------|
B|----------------|----------------|----------------|----------------|
G|----------------|----------------|----------------|----------------|
D|----------------|----------------|----------------|----------------|
A|----------------|----------------|----------------|----------------|
E|----------------|----------------|----------------|----------------|

    W                W             
e|--4-------------|-10-------------|
B|----------------|----------------|
G|----------------|----------------|
D|----------------|----------------|
A|----------------|----------------|
E|----------------|----------------|

   S S S S S Q  S S S S S S S  E S S S S S S S S S S S E.
e|-5-5-5-5-5------5-5-5-5-5--|---5-5-5-5-5---5-5-5-5-5---|
B|---------------------------|---------------------------|
G|---------------------------|---------------------------|
D|---------------------------|---------------------------|
A|---------------------------|---------------------------|
E|---------------------------|---------------------------|

Repeat starts here
    E   E   E   E   E   E   E   E
e|-13--12--13--12----------------|
B|-----------------15--13--15--13|
G|-------------------------------|   X 6
D|-------------------------------|
A|-------------------------------|
E|-------------------------------|

    E   E   E   E   E   E   E   E   E   E   E   E   E   E   E   E
e|-13--12--13--12--17--15--17--15|-13--12--13--12----------------|
B|-------------------------------|-----------------15--13--15--13|
G|-------------------------------|-------------------------------|
D|-------------------------------|-------------------------------|
A|-------------------------------|-------------------------------|
E|-------------------------------|-------------------------------|

    E   E   E   E   E   E   E   E
e|-------------------------------|
B|-13--11--13--11----------------|
G|-----------------13--12--13--12|   X 4
D|-------------------------------|
A|-------------------------------|
E|-------------------------------|

    E   E   E   E   E   E   E   E
e|-11--10--11--10----------------|
B|-----------------13--11--13--11|
G|-------------------------------|   X 2
D|-------------------------------|
A|-------------------------------|
E|-------------------------------|

    E   E   E   E   E   E   E   E   E   E   E   E   E   E   E   E
            .           .           .           .
e|-11--10--11--15--13--15--18--16|-18--15--13--15--11--10--11--10|
B|-------------------------------|-------------------------------|
G|-------------------------------|-------------------------------|
D|-------------------------------|-------------------------------|
A|-------------------------------|-------------------------------|
E|-------------------------------|-------------------------------|

    H.        Q      W                W
e|----------------|----------------|----------------|----------------|
B|------------0---|--1-------------|--L-------------|----------------|
G|--2-------------|----------------|----------------|----------------|
D|----------------|----------------|----------------|----------------|
A|----------------|----------------|----------------|----------------|
E|----------------|----------------|----------------|----------------|

    H.        Q      W                W
e|----------------|----------------|----------------|----------------|
B|--0-------------|----------------|----------------|----------------|
G|------------2---|--0-------------|--L-------------|----------------|
D|----------------|----------------|----------------|----------------|
A|----------------|----------------|----------------|----------------|
E|----------------|----------------|----------------|----------------|

    H.        Q      W                W
e|----------------|----------------|----------------|----------------|
B|----------------|----------------|----------------|----------------|
G|--0---------2---|--3-------------|--L-------------|----------------|
D|----------------|----------------|----------------|----------------|
A|----------------|----------------|----------------|----------------|
E|----------------|----------------|----------------|----------------|

    H.        Q      W                W
e|----------------|----------------|----------------|----------------|
B|----------------|----------------|----------------|----------------|
G|--2---------0---|----------------|----------------|----------------|
D|----------------|--3-------------|--L-------------|----------------|
A|----------------|----------------|----------------|----------------|
E|----------------|----------------|----------------|----------------|

    W                W                W                W
e|----------------|--8-------------|--7-------------|-10-------------|
B|--6-------------|----------------|----------------|----------------|
G|----------------|----------------|----------------|----------------|
D|----------------|----------------|----------------|----------------|
A|----------------|----------------|----------------|----------------|
E|----------------|----------------|----------------|----------------|

    W                W                W                W
e|--8-------------|-11-------------|-10-------------|-13-------------|
B|----------------|----------------|----------------|----------------|
G|----------------|----------------|----------------|----------------|
D|----------------|----------------|----------------|----------------|
A|----------------|----------------|----------------|----------------|
E|----------------|----------------|----------------|----------------|

    E   E   E   E   E   E   E   E
e|-12--10--12--10----------------|
B|-----------------13--11--13--11|
G|-------------------------------|   X 4
D|-------------------------------|
A|-------------------------------|
E|-------------------------------|



Bass

G|----------------|----------------|----------------|----------------|
D|----------------|----------------|----------------|----------------|
A|----------------|----------------|----------------|----------------|
E|----------------|----------------|----------------|----------------|

    E   E   E   E   E   E   E   E   E   E   E   E   E   E   E   E
G|-------------------------------|-------------------------------|
D|------------------8---7--------|------7---8---7----------------|  X 8  Repeat starts on Bar 13
A|--5---8---5---8-----------8---5|--8---------------8---5--------|
E|-------------------------------|--------------------------6---5|

    E   E   E   E   E   E   E   E   E   E   E   E   E   E   E   E
G|------------------6---5--------|------5---6---5----------------|
D|------6-------6-----------6----|--6---------------6------------|  X 2
A|--8-------8-------------------8|----------------------8--------|
E|-------------------------------|--------------------------9---8|

    E   E   E   E   E   E   E   E   E   E   E   E   E   E   E   E
G|-------------------------------|-------------------------------|
D|------------------6---5--------|------5---6---5----------------|  X 2
A|------6-------6-----------6----|--6---------------6------------|
E|--8-------8-------------------8|----------------------8---4---3|

    E   E   E   E   E   E   E   E   E   E   E   E   E   E   E   E
G|-------------------------------|-------------------------------|
D|------------------3---2--------|------2---3---2----------------|  X 2
A|--0---3---0---3-----------3---0|--3---------------3---0--------|
E|-------------------------------|--------------------------1---0|

    E   E   E   E   E   E   E   E   E   E   E   E   E   E   E   E
G|------0-------0---5---4---0----|--0---4---5---4---0------------|
D|--2-------2-------------------2|----------------------2--------|  X 2
A|-------------------------------|--------------------------3---2|
E|-------------------------------|-------------------------------|

    E   E   E   E   E   E   E   E   E   E   E   E   E   E   E   E
G|------------------8---7--------|------7---8---7----------------|
D|--5---8---5---8-----------8---5|--8---------------8---5--------|  X 2
A|-------------------------------|--------------------------6---5|
E|-------------------------------|-------------------------------|

    E   E   E   E   E   E   E   E   E   E   E   E   E   E   E   E
G|------------------3---2--------|------2---3---2----------------|
D|--0---3---0---3-----------3---0|--3---------------3---0--------|  X 2
A|-------------------------------|--------------------------1---0|
E|-------------------------------|-------------------------------|

    E   E   E   E   E   E   E   E   E   E   E   E   E   E   E   E
   P.M P.M     P.M P.M     P.M P.M     P.M P.M     P.M P.M     P.M
G|-------------------------------|-------------------------------|
D|--3---3---3---3---3---3---3---3|--3---3---3---3---3---3---3---3|  X 4
A|-------------------------------|-------------------------------|
E|-------------------------------|-------------------------------|

    E   E   E   E   E   E   E   E   E   E   E   E   E   E   E   E
G|------------------1---0--------|------0---1---0----------------|
D|------2-------2-----------2----|--2---------------2------------|  X 2
A|--3-------3-------------------3|----------------------3--------|
E|-------------------------------|--------------------------4---3|


Legend:
W - Whole note
H - Half note
Q - Quarter note
E - Eighth note
S - Sixteenth note
L - Tied note
P.M - Palm Mute
.(next to letter) - dotted note
.(beneath letter) - staccato


I couldn't help it. After rediscovering this track after a decade, I felt
I HAD to transcribe this. I don't think I need to sing this song's praises,
because, let's face it, anyone who's played Final Fantasy VII knows just
how awesome this track is.

I realise how hard this track may be to play because of how fast parts are,
but I'm sure with enough practice someone can do it. There are some pretty
crazy people out there, after all.

And, yes, I am completely aware that Final Fantasy VII is kind of overdone,
but frankly, I don't care.
Login or Register to remove this ad.

2 comments on J-E-N-O-V-A

Nicely done.

5

Definitely one of the more simple Jenova tabs, especially after the intro.

Thank you!

Thank you!