Ads

J-E-N-O-V-A (Final Fantasy VII) Guitar Tab

Submitted: Mar 07, 2013 by The Ripper

4.666665
Average: 4.7 (6 votes)
Download | Listen
Game: Final Fantasy VII
Composer(s): Nobuo Uematsu
Style: Arrangement, Fingerstyle
Series: Final Fantasy

AutoScroll: Slow | Medium | Fast
                                                JENOVA
                                           Final Fantasy VII 
                                       Composed  by Nobuo Uematsu
                                Tabbed by the Ripper  March 6th 2013



    E  E  E  E  E  E  E  E     E  E  E  E  E  E  E  E   
E||--6--5--------------------|--6--5--------------------|
B||--------6-----------------|--------6-----------------|
G||-----------7--------------|-----------7--------------|
D||--------------8--7--------|--------------8--7--------|
A||--------------------8--5--|--------------------8--5--|
E||--------------------------|--------------------------|


   E  E  E  E  E  E  E  E     E  E  E  E  E  E  E  E     Q    Q    Q    Q     
|--6--5--------------------|--6--5--------------------|--4--------------L----|
|--------6-----------------|--------6-----------------|--5--------------L----|
|-----------7--------------|-----------7--------------|--3--------------L----|
|--------------8--7--------|--------------8--7--------|--0----0----0----0----|
|--------------------8--5--|--------------------8--5--|----------------------|
|--------------------------|--------------------------|----------------------|


   Q    Q    Q    Q       S S S S Q    Q    Q       Q    Q    Q    Q     
|-----------------L----|-------------------------|----------------------|
|-----------------L----|--0-0-0-0-0--------------|----------------------|
|-----------------L----|--2-2-2-2-2--------------|----------------------|
|--0----0----0----0----|--3-3-3-3-3----0----0----|--0----0----0----0----|
|----------------------|--5-5-5-5-5--------------|----------------------|
|----------------------|-------------------------|----------------------|


   Q    Q    Q    Q        Q    Q    Q    Q       S S S S Q    E  S S S S E   
|--4--------------L----|--10--------------L----|-----------------------------|
|--5--------------L----|---9--------------L----|--0-0-0-0-0-------0-0-0-0-0--|
|--3--------------L----|---9--------------L----|--2-2-2-2-2-------2-2-2-2-2--|
|--0----0----0----0----|---0----0----0----0----|--3-3-3-3-3-------3-3-3-3-3--|
|----------------------|-----------------------|--5-5-5-5-5-------5-5-5-5-5--|
|----------------------|-----------------------|-----------------------------|


    Q    Q    Q    Q       Q    Q    Q    Q       Q    Q    Q    Q     
|------------------0----|--1--------------L----|-------L---------0----|
|---3---------L---------|----------------------|------------3---------|
|*----------------------|----------------------|----------------------|
|*--0----0----0----0----|--0----0----0----0----|--0----0----0----0----|
|-----------------------|----------------------|----------------------|
|-----------------------|----------------------|----------------------|


   Q    Q    Q    Q       Q    Q    Q    Q       Q    Q    Q    Q     
|--1----L----3----L----|--5--------------L----|--L--------------L----|
|----------------------|----------------------|----------------------|
|----------------------|----------------------|----------------------|
|--0----0----0----0----|--0----0----0----0----|--0----0----0----0----|
|----------------------|----------------------|----------------------|
|----------------------|----------------------|----------------------|


   E  E  E  E  E  E  E  E     E  E  E  E  E  E  E  E     Q    Q    Q    Q     
|--------------5-----5-----|--------------------------|-----------------3----|
|--6--5--6--5-----8-----8--|--6--5--6--5--------------|--6---------L---------|
|--------------------------|--------------7--5--7--5--|----------------------|
|--0--L--0--L--0--L--0--L--|--0--L--0--L--0--L--0--L--|--3----3----3----3----|
|--------------------------|--------------------------|----------------------|
|--------------------------|--------------------------|----------------------|


   Q    Q    Q    Q       Q    Q    Q    Q       Q    Q    Q    Q     
|--4--------------L----|-------L---------3----|--4----L----6----L----|
|----------------------|------------6---------|----------------------|
|----------------------|----------------------|----------------------|
|--3----3----3----3----|--3----3----3----3----|--3----3----3----3----|
|----------------------|----------------------|----------------------|
|----------------------|----------------------|----------------------|


   Q    Q    Q    Q       Q    Q    Q    Q       E  E  E  E  E  E  E  E   
|----------------------|----------------------|-----------3-----3--6--4--|
|----------------------|----------------------|--4--3--4-----6-----------|
|--5--------------L----|--L--------------L----|--------------------------|
|--5--------------L----|--L--------------L----|--------------------------|
|--6--------------L----|--L--------------L----|--3--L--3--L--3--L--3--L--|
|--8----8----8----8----|--8----8----8----8----|--------------------------|


   E  E  E  E  E  E  E  E      Q    Q    Q    Q       Q    Q    Q    Q     
|--6--3-----3--------------|---8---------L----7----|--5--------------L----|
|--------6-----4--3--4--3--|--10---------L---------|--5--------------L----|
|--------------------------|---9---------L---------|--5--------------L----|
|--------------------------|---7----7----7----7----|--7----7----7----7----|
|--3--L--3--L--3--L--3--L--|-----------------------|----------------------|
|--------------------------|-----------------------|----------------------|


   Q     Q    Q     Q       Q    Q    Q    Q       Q    Q    Q    Q     
|--------8----7----------|----------------------|--0--------------L----|
|-------10---------10----|----------------------|--0--------------L----|
|--------9---------------|--5----L----7----L----|----------------------|
|--7-----7----7-----7----|--7----7----7----7----|-----------------7----|
|------------------------|----------------------|--7----7----7----7----|
|------------------------|----------------------|----------------------|


   Q    Q    Q    S S  S   S    Q    Q    Q    Q       Q    Q    Q    Q     
|--L---------L---------------|--7--------------L----|--L--------------L----|
|-------------------7h-8h-10-|--8--------------L----|--L--------------L----|
|--0---------L----9----------|--9--------------L----|--L--------------L----|
|----------------------------|----------------------|----------------------|
|--7----7----7----7--------L-|--7----7----7----7----|--7----7----7----7----|
|----------------------------|----------------------|----------------------|


   Q    Q    Q    Q       Q    Q    Q    Q       Q    Q    Q    Q     
|--6---------L----5----|--3--------------L----|-------6----5---------|
|--8---------L---------|--3--------------L----|-------8---------8----|
|--7---------L---------|--3--------------L----|-------7--------------|
|--5----5----5----5----|--5----5----5----5----|--5----5----5----5----|
|----------------------|----------------------|----------------------|
|----------------------|----------------------|----------------------|


   Q    Q    Q    Q       Q    Q    Q    Q       Q    Q    Q    S S S S  
|----------------------|----------------------|-------------------------|
|----------------------|--3--------------L----|-------------------5-6-8-|
|--3----L----5----L----|--2---------L----0----|-----------------7-------|
|--5----5----5----5----|--0----0----0----0----|--3----L----0----0-----L-|
|----------------------|----------------------|--5----5-----------------|
|----------------------|----------------------|-------------------------|


   Q    Q    Q    Q       Q    Q    Q    S S S S     E  E  E  E  E  E  E  E   
|--5--------------L----|--L---------L------------|---------------------------|
|--6--------------L----|--L---------L------5-6-8-|--10--------------------L--|
|--7--------------L----|--L---------L----7-------|--10--------------------L--|
|--0----0----0----0----|--0----0----0----0-----L-|--10--------------------L--|
|----------------------|-------------------------|---8--8--8--8--8--8--8--8--|
|----------------------|-------------------------|---------------------------|


    E  E   E  E   E  E  E  E     E  E   E  E  E  E  E  E   
|-----------------------8--L--|--7--L---------------------|
|--10--L------8--10--L--------|--8--L--10--8-----------L--|
|--10--L--10------------------|--7--L---------------------|
|--10--L----------------------|---------------------------|
|---8--8---8--8---8--8--8--8--|--8--L---8--8--8--8--8--8--|
|-----------------------------|---------------------------|


   E  E  E  E  E  E  E  E     E  E  E  E  E  E  E  E   
|--------------------------|--8--------------------L--|
|--L--------------------L--|--9--------------------L--|
|--------------------------|--8--------------------L--|
|--------------------------|--------------------------|
|--8--8--8--8--8--8--8--8--|--8--8--8--8--8--8--8--8--|
|--------------------------|--------------------------|


   E  E  E   E  E  E   E  E      E  E  E   E  E  E  E  E   
|-----L---------8--L--11--L--|--10--L--8------------------|
|-----L--9--11---------------|--11--L-----11-----------L--|
|-----L----------------------|--10--L---------------------|
|----------------------------|----------------------------|
|--8--8--8---8--8--8---8--8--|---8--8--8---8--8--8--8--8--|
|----------------------------|----------------------------|


   E  E  E  E   E  E  E  E     Q    Q    Q    Q       Q    Q    Q    Q     
|---------------------------|--8--------------L----|--L--------------L----|
|--L--------L--11--------L--|-----------------L----|--L--------------L----|
|---------------------------|--9--------------L----|--L--------------L----|
|---------------------------|----------------------|----------------------|
|--8--8--8--8---8--8--8--8--|----------------------|----------------------|
|---------------------------|--8----8----8----8----|--8----8----8----8----|


    E   E   E   E  E   E  E   E      E   E   E   E  E   E  E   E     
|--12--10--12--10--8------8------|--12--10--12--10--8------8-------||
|---------------------11-----11--|---------------------11-----11---||
|--------------------------------|--------------------------------*||
|--------------------------------|--------------------------------*||
|--------------------------------|---------------------------------||
|---8---L---8---L--8---L--8---L--|---8---L---8---L--8---L--8---L---||


   E  E  E  E  E  E  E  E     E  E  E  E  E  E  E  E   
|--6--5--------------------|--6--5--------------------|
|--------6-----------------|--------6-----------------|
|-----------7--------------|-----------7--------------|
|--------------8--7--------|--------------8--7--------|
|--------------------8--5--|--------------------8--5--|
|--------------------------|--------------------------|


   E  E  E  E  E  E  E  E     E  E  E  E  E  E  E  E    
|--6--5--------------------|--6--5--------------------||
|--------6-----------------|--------6-----------------||
|-----------7--------------|-----------7--------------||
|--------------8--7--------|--------------8--7--------||
|--------------------8--5--|--------------------8--5--||
|--------------------------|--------------------------||




                         Legend
	             ---------------
			W - whole
			H - half
			Q - quarter
			E - 8th
			S - 16th
			T - 32nd
			X - 64th
			. - note dotted
			|-n-|  - n-tuplets
			L - tied note
Login or Register to remove this ad.

1 comment on J-E-N-O-V-A

Decent arrangement, pretty

Decent arrangement, pretty fun to play.