Ads

It's Difficult to Stand on Both Feet (Final Fantasy VII) Guitar Tab

Submitted: Aug 12, 2010 by Bhael

5
Average: 5 (8 votes)
Download | Listen
Game: Final Fantasy VII
Composer(s): Nobuo Uematsu
Style: Arrangement, Fingerstyle
Series: Final Fantasy

AutoScroll: Slow | Medium | Fast
                     It's Difficult to Stand on Both Feet               
                             Final Fantasy VII        
                               Nobou Uematsu



     E  E  E  E  E  E  E  E     E  E  E  E  E  E  E  E   
E||--------------------4-----|--3-----------------------|
B||-----4-----4-----4-----6--|-----4-----4-----4-----4--|
G||-----5-----5-----5--------|-----5-----5-----5-----5--|
D||--------------------------|--------------------------|
A||--3-----------------4-----|--3-----------------4-----|
E||--------3-----4-----------|--------3-----4-----------|


                                                        ^         ^          
  E  E  E  E  E  E  E  E     E  E  E  E  E  E  E  E     Q    Q    Q    Q     
--------------------------|--------------------------|----------------------|
-----4-----4-----4--------|-----4-----4-----4-----4--|--4---------6---------|
-----5-----5-----5--------|-----5-----5-----5-----5--|--0-------------------|
--------------------6--3--|--5-----------------------|------------6---------|
--3-----------------4-----|--3-----------------4-----|--3--------------4----|
--------3-----4-----------|--------3-----4-----------|-------3----4---------|


  ^         ^            ^         ^            ^         ^          
  Q    Q    Q    Q       Q    Q    Q    Q       Q    Q    Q    Q     
----------------------|----------------------|----------------------|
--3---------4---------|--4---------6---------|--3---------4---------|
--0-------------------|--0-------------------|--0-------------------|
------------3---------|------------6---------|------------3---------|
--3--------------4----|--3--------------4----|--3--------------4----|
-------3----4---------|-------3----4---------|-------3----4---------|


  E  E  E  E  E  S  S  Q       E  E  E  E  E  S  S  Q     
-----3-----3-----3S-4S-5----|-----3-----3-----3S-4S-5----|
-----4-----4-----4S-5S-6----|-----4-----4-----4S-5S-6----|
----------------------------|----------------------------|
----------------------------|----------------------------|
--3-------------------------|--3-------------------------|
----------------------------|----------------------------|


  E  E  E  E  Q    E  E     E  E  E  E  E  E  E  E   
-------------------------|--------------------------|
-----4-----4-------4-----|-----------------4--------|
-----5-----5-------5-----|-----------------5--------|
--------5-----3----------|--1--3--1--0--------------|
--3-------------------5--|--3-----------------4--2--|
-------------------------|--------3-----4-----------|


  E  E  E  E  E  S  S  E  E     E  E  E  E  E  S  S  E  E   
-----3-----3-----3S-4S-5-----|-----3-----3-----3S-4S-5-----|
-----4-----4-----4S-5S-6-----|-----4-----4-----4S-5S-6-----|
-----------------------------|-----------------------------|
-----------------------------|-----------------------------|
--3-----------------------4--|--3-----------------------4--|
--------3-----4--------------|--------3-----4--------------|


  E  E  E  E  Q    E  E     E  E  E  E  E  E  E  E   
-------------------------|--------------------------|
-----4-----4-------4-----|--1--3--4-----------------|
-----5-----5-------5--3--|-----------3-----------3--|
--------5-----3----------|-----------------3--------|
--3----------------------|--3-----------------4-----|
-------------------------|--------3-----4-----------|


  E  E  E  E  E  S  S  E  E     E  E  E  E  E  S  S  E  S   S  
-----3-----3-----3S-4S-5-----|-----3-----3-----3S-4S-5--8h-10-|
-----4-----4-----4S-5S-6-----|-----4-----4-----4S-5S-6--------|
--0--------------------------|--------------------------------|
-----------------------------|--------------------------------|
--3-----------------------4--|--3-----------------------------|
--------3-----4--------------|--------3-----4-----------8-----|


                                         ^                      
   E   S  S S  S  S  S E  S S S S S S    Q.     E  E  E  E  E   
--11--10----8----------4--3-----------|---------------3--------|
-----------------11-----------6---4---|------------------3--6--|
--------------------------------------|--6------5--4-----------|
--10-----10---10----10-3----3---3---3-|--6---------------------|
--------------------------------------|--4------3--2-----------|
--------------------------------------|------------------3-----|


  E  E  E  E  E  E  E  E     E  E  E  E  E  E  E  E   
--------------------------|--------------------------|
--4--------4-----4-----4--|-----4-----4-----4-----4--|
-----5-----5-----5-----5--|-----5-----5-----5-----5--|
--------------------------|--------------------------|
--3-----------------4-----|--3-----------------4-----|
--------3-----4-----------|--------3-----4-----------|


  E  E  E  E  E  E  E  E     E  E  E  E  E  E  E  E   
--6-----------3-----------|--6-----------3-----------|
--------------------3--1--|--------------------3--1--|
-----3-----3-----3--------|-----3-----3-----3--------|
--------------1-----------|--------------1-----------|
--------5-----------1-----|--------5-----------1-----|
--3-----------------------|--3-----------------------|


                             ^                          
  E  E  E  E  E  E  E  E     E  S S E  S S E  S S Q     
--6-----------3-----1-----|--3--2-3-5--3-5-6--5-6-3----|
--------------------------|--4-------------------------|
-----3-----3-----3-----3--|--3------0------3------0----|
--------5-----0-----------|----------------------------|
--3-----------------------|----------------------------|
--------------------------|----------------------------|


  E  E  E  E  E  E  E  E     E  E  E  E  E  E  E  E   
--8-----------5-----------|--8-----------5-----------|
--------5--------5-----3--|-----5-----5--------5--3--|
-----5-----5--------------|--------5--------5--------|
--------------3-----------|--------------3-----------|
--0-----------------3-----|--0-----------------3-----|
--------------------------|--------------------------|


  E  E  E  E  E  E  E  E     E  E  E  E  E  E  E  E     E  E  E  E  H          
--8-----------5-----3-----|--5-----------------------|-----------------------||
-----5-----5-----0-----0--|--------------------------|-----------------------||
--------------------------|-----5-----5-----5-----5--|--5-----5--5--5--------||
--0-----------2-----------|--3-----------3-----------|--3--2--0-----3--------||
--------0-----------2-----|--------3-----------3-----|-----------3-----------||
--------------------------|--------------------------|-----------------------||




Duration Legend
---------------
W - whole
H - half
Q - quarter
E - 8th
S - 16th
T - 32nd
X - 64th
. - note dotted
|-n-|  - n-tuplets


Tablature Legend
----------------
L - tied note
x - dead note
g - grace note
(n) - ghost note
> - accentuded note
NH - natural harmonic
AH - artificial harmonic
TH - tapped harmonic
SH - semi harmonic
PH - pitch harmonic
h - hammer on
p - pull off
b - bend
br - bendRelease
pb - preBend
pbr - preBendRelease
brb - bendReleaseBend
\n/ - tremolo bar dip
\n - tremolo bar dive
-/n - tremolo bar Release up
/n\ - tremolo bar inverted dip
/n - tremolo bar return
-\n - tremolo bar Release down
S - shift slide
s - legato slide
/ -  slide into from below or out of upwards
\ -  slide into from above or out of downwards
~ - vibrato
W - wide vibrato
tr - trill
TP - tremolo picking
T - tapping
S - slap
P - pop
< - fade in
^ - brush up
v - brush down
Login or Register to remove this ad.

3 comments on It's Difficult to Stand on Both Feet

thanks

5

i don't know if it was intentional, but i can print this without splitting up a measure between 2 pages which always happens, so thank you!

Hehe...

5

I almost forgot about this silly song...My niece loves it, i showed her RedXIII walking around and she just lost it, now she won't stop walking like she crapped her pants...

Awesome

5

Awesome! I Completely Forgot About This Song.

Thanks For Tabbing It ^-^