Ads

Interrupted By Fireworks (SongeLeReveur Version) (Final Fantasy VII) Guitar Tab

Submitted: Sep 06, 2010 by ForestMarth (Last updated: Sep 06, 2010)

5
Average: 5 (5 votes)
Download | Listen
Game: Final Fantasy VII
Composer(s): Nobuo Uematsu
Style: 2 or more instruments, Arrangement, Natural harmonics, Transcription
Series: Final Fantasy

This song is also called Words Drowned by Fireworks

Click here for a video example.

AutoScroll: Slow | Medium | Fast
                           Interrupted By Fireworks

Composed by : Nobuo Uematsu

Arranged by : SongeLeReveur

Tabbed by : ForestMarth

Platform : PlayStation




Guitar 1



     Dsus2                   G     F#m/5+    Em7       Dsus2                 
                             ^     ^         ^                               
     E     E  E  E  E  E     E  E  E      E  E   E     E     E  E  E  E  E   
E||--------------0--------|-------------------------|--------------0--------|
B||-----------3-----3-----|-----3---------3------3--|-----------3-----3-----|
G||--------2-----------2--|--4-----2---------0------|--------2-----------2--|
D||--0--------------------|--5-----4---------2------|--0--------------------|
A||-----------------------|-------------------------|-----------------------|
E||-----------------------|-------------------------|-----------------------|


                       C5                                      
  E  E  E  E  E  E     E  E  E  E  E  E     E  E  E  E  E  E   
-----------0--------|--------------------|--------------------|
--------3-----3-----|--------1--3--1-----|--------1--3--1-----|
-----2-----------2--|-----0-----------0--|-----0-----------0--|
--0-----------------|--------------------|--------------------|
--------------------|--3-----------------|--3-----------------|
--------------------|--------------------|--------------------|


                                            Dsus2                 
  E  E  E  E  E  E     E  E  E  E  E  E     E     E  E  E  E  E   
--------------------|--------------------|--------------0--------|
--------1--3--1-----|--------1--3--1-----|-----------3-----3-----|
-----0-----------0--|-----0-----------0--|--------2-----------2--|
--------------------|--------------------|--0--------------------|
--3-----------------|--3-----------------|-----------------------|
--------------------|--------------------|-----------------------|


  E  E  E  E  E  E     E  E  E  E  E  E     E  E  E  E  E  E   
-----------0--------|-----------0--------|-----------0--------|
--------3-----3-----|--------3-----3-----|--------3-----3-----|
-----2-----------2--|-----2-----------2--|-----2-----------2--|
--0-----------------|--0-----------------|--0-----------------|
--------------------|--------------------|--------------------|
--------------------|--------------------|--------------------|


  C5                                                           
  E  E  E  E  E  E     E  E  E  E  E  E     E  E  E  E  E  E   
--------------------|--------------------|--------------------|
--------1--3--1-----|--------1--3--1-----|--------1--3--1-----|
-----0-----------0--|-----0-----------0--|-----0-----------0--|
--------------------|--------------------|--------------------|
--3-----------------|--3-----------------|--3-----------------|
--------------------|--------------------|--------------------|


                       Bsus2                                      
  E  E  E  E  E  E     E     E  E  E  E  E     E  E  E  E  E  E   
--------------------|-----------------------|--------------------|
--------1--3--1-----|--------------2--------|-----------2--------|
-----0-----------0--|-----------4-----4-----|--------4-----4-----|
--------------------|--------4-----------4--|-----4-----------4--|
--3-----------------|--2--------------------|--2-----------------|
--------------------|-----------------------|--------------------|


                                            C5                 
  E  E  E  E  E  E     E  E  E  E  E  E     E  E  E  E  E  E   
--------------------|--------------------|--------------------|
-----------2--------|-----------2--------|--------1--3--1-----|
--------4-----4-----|--------4-----4-----|-----0-----------0--|
-----4-----------4--|-----4-----------4--|--------------------|
--2-----------------|--2-----------------|--3-----------------|
--------------------|--------------------|--------------------|


                       Asus2                                      
  E  E  E  E  E  E     E     E  E  E  E  E     E  E  E  E  E  E   
--------------------|-----------------------|--------------------|
--------1--3--1-----|--------------0--------|-----------0--------|
-----0-----------0--|-----------2-----2-----|--------2-----2-----|
--------------------|--------2-----------2--|-----2-----------2--|
--3-----------------|--0--------------------|--0-----------------|
--------------------|-----------------------|--------------------|


  G5                                                           
  E  E  E  E  E  E     E  E  E  E  E  E     E  E  E  E  E  E   
--------------------|--------------------|--------------------|
--------------------|--------------------|--------------------|
--------0--2--0-----|--------0--2--0-----|--------0--2--0-----|
-----0-----------0--|-----0-----------0--|-----0-----------0--|
--------------------|--------------------|--------------------|
--3-----------------|--3-----------------|--3-----------------|


                       D                    C#m/5+                 
  E  E  E  E  E  E     E  E  E  E  E  E     E      E  E  E  E  E   
--------------------|-----------2--------|---------------0--------|
--------------------|--------3-----3-----|------------2-----2-----|
--------0--2--0-----|-----2-----------2--|---------2-----------2--|
-----0-----------0--|--0-----------------|------------------------|
--------------------|--------------------|--4---------------------|
--3-----------------|--------------------|------------------------|


  C6                                        Bm/5+                 
  E  E  E  E  E  E     E  E  E  E  E  E     E     E  E  E  E  E   
-----------0--------|-----------0--------|-----------------------|
--------1-----1-----|--------1-----1-----|--------------3--------|
-----2-----------2--|-----2-----------2--|-----------4-----4-----|
--------------------|--------------------|--------5-----------5--|
--3-----------------|--3-----------------|--2--------------------|
--------------------|--------------------|-----------------------|


                       A#6                                      
  E  E  E  E  E  E     E   E  E  E  E  E     E  E  E  E  E  E   
--------------------|---------------------|--------------------|
-----------3--------|------------3--------|-----------3--------|
--------4-----4-----|---------3-----3-----|--------3-----3-----|
-----5-----------5--|------5-----------5--|-----5-----------5--|
--2-----------------|---------------------|--------------------|
--------------------|--6------------------|--6-----------------|


  Dsus2                   G     F#m/5+    Em7       Dsus2                 
                          ^     ^         ^                               
  E     E  E  E  E  E     E  E  E      E  E   E     E     E  E  E  E  E   
--------------0--------|-------------------------|--------------0--------|
-----------3-----3-----|-----3---------3------3--|-----------3-----3-----|
--------2-----------2--|--4-----2---------0------|--------2-----------2--|
--0--------------------|--5-----4---------2------|--0--------------------|
-----------------------|-------------------------|-----------------------|
-----------------------|-------------------------|-----------------------|


                       C5                                      
  E  E  E  E  E  E     E  E  E  E  E  E     E  E  E  E  E  E   
-----------0--------|--------------------|--------------------|
--------3-----3-----|--------1--3--1-----|--------1--3--1-----|
-----2-----------2--|-----0-----------0--|-----0-----------0--|
--0-----------------|--------------------|--------------------|
--------------------|--3-----------------|--3-----------------|
--------------------|--------------------|--------------------|


                                            Dsus2                 
  E  E  E  E  E  E     E  E  E  E  E  E     E     E  E  E  E  E   
--------------------|--------------------|--------------0--------|
--------1--3--1-----|--------1--3--1-----|-----------3-----3-----|
-----0-----------0--|-----0-----------0--|--------2-----------2--|
--------------------|--------------------|--0--------------------|
--3-----------------|--3-----------------|-----------------------|
--------------------|--------------------|-----------------------|


  E  E  E  E  E  E     E  E  E  E  E  E     E  E  E  E  E  E   
-----------0--------|-----------0--------|-----------0--------|
--------3-----3-----|--------3-----3-----|--------3-----3-----|
-----2-----------2--|-----2-----------2--|-----2-----------2--|
--0-----------------|--0-----------------|--0-----------------|
--------------------|--------------------|--------------------|
--------------------|--------------------|--------------------|


  C5                                                           
  E  E  E  E  E  E     E  E  E  E  E  E     E  E  E  E  E  E   
--------------------|--------------------|--------------------|
--------1--3--1-----|--------1--3--1-----|--------1--3--1-----|
-----0-----------0--|-----0-----------0--|-----0-----------0--|
--------------------|--------------------|--------------------|
--3-----------------|--3-----------------|--3-----------------|
--------------------|--------------------|--------------------|


                       Bsus2                                      
  E  E  E  E  E  E     E     E  E  E  E  E     E  E  E  E  E  E   
--------------------|-----------------------|--------------------|
--------1--3--1-----|--------------2--------|-----------2--------|
-----0-----------0--|-----------4-----4-----|--------4-----4-----|
--------------------|--------4-----------4--|-----4-----------4--|
--3-----------------|--2--------------------|--2-----------------|
--------------------|-----------------------|--------------------|


                                            C5                 
  E  E  E  E  E  E     E  E  E  E  E  E     E  E  E  E  E  E   
--------------------|--------------------|--------------------|
-----------2--------|-----------2--------|--------1--3--1-----|
--------4-----4-----|--------4-----4-----|-----0-----------0--|
-----4-----------4--|-----4-----------4--|--------------------|
--2-----------------|--2-----------------|--3-----------------|
--------------------|--------------------|--------------------|


                       Asus2                                      
  E  E  E  E  E  E     E     E  E  E  E  E     E  E  E  E  E  E   
--------------------|-----------------------|--------------------|
--------1--3--1-----|--------------0--------|-----------0--------|
-----0-----------0--|-----------2-----2-----|--------2-----2-----|
--------------------|--------2-----------2--|-----2-----------2--|
--3-----------------|--0--------------------|--0-----------------|
--------------------|-----------------------|--------------------|


  G5                                                           
  E  E  E  E  E  E     E  E  E  E  E  E     E  E  E  E  E  E   
--------------------|--------------------|--------------------|
--------------------|--------------------|--------------------|
--------0--2--0-----|--------0--2--0-----|--------0--2--0-----|
-----0-----------0--|-----0-----------0--|-----0-----------0--|
--------------------|--------------------|--------------------|
--3-----------------|--3-----------------|--3-----------------|


                       G7M            
                       ^              
  E  E  E  E  E  E     H.             
--------------------|--2------------||
--------------0--3--|--3------------||
--------0--2--------|--0------------||
-----0--------------|--0------------||
--------------------|--x------------||
--3-----------------|--3------------||




Guitar 2



     H.              H.              H.              H.            
E||---------------|---------------|---------------|---------------|
B||---------------|---------------|---------------|---------------|
G||---------------|---------------|---------------|---------------|
D||---------------|---------------|---------------|---------------|
A||---------------|---------------|---------------|---------------|
E||---------------|---------------|---------------|---------------|


  H.              H.              H.              H.            
---------------|---------------|---------------|---------------|
---------------|---------------|---------------|---------------|
---------------|---------------|---------------|---------------|
---------------|---------------|---------------|---------------|
---------------|---------------|---------------|---------------|
---------------|---------------|---------------|---------------|


  Asus4add13                                                           
  E          E  E  E  E  E     E  E  E  E  E  E     E  E  E  E  E  E   
-------------5-----5-----5--|-----5-----5-----5--|-----5-----5-----5--|
-------------7-----7-----7--|-----7-----7-----7--|-----7-----7-----7--|
----------------7-----7-----|--------7-----7-----|--------7-----7-----|
--7-------------------------|--7-----------------|--7-----------------|
----------------------------|--------------------|--------------------|
----------------------------|--------------------|--------------------|


                       Gsus4add13                                      
  E  E  E  E  E  E     E          E  E  E  E  E     E  E  E  E  E  E   
-----5-----5-----5--|-------------3-----3-----3--|-----3-----3-----3--|
-----7-----7-----7--|-------------5-----5-----5--|-----5-----5-----5--|
--------7-----7-----|----------------5-----5-----|--------5-----5-----|
--7-----------------|--5-------------------------|--5-----------------|
--------------------|----------------------------|--------------------|
--------------------|----------------------------|--------------------|


                                            Bm                 
  E  E  E  E  E  E     E  E  E  E  E  E     E  E  E  E  E  E   
-----3-----3-----3--|-----3-----3-----3--|-----7-----7-----7--|
-----5-----5-----5--|-----5-----5-----5--|-----7-----7-----7--|
--------5-----5-----|--------5-----5-----|--------7-----7-----|
--5-----------------|--5-----------------|--9-----------------|
--------------------|--------------------|--------------------|
--------------------|--------------------|--------------------|


  E   E  E  E  E  E     E  E  E  E  E  E     E  E  E  E  E  E   
-----10-----9-----7--|-----7-----7-----7--|-----7-----7-----7--|
------7-----7-----7--|-----7-----7-----7--|-----7-----7-----7--|
---------7-----7-----|--------7-----7-----|--------7-----7-----|
--9------------------|--9-----------------|--9-----------------|
---------------------|--------------------|--------------------|
---------------------|--------------------|--------------------|


  Q.     Q.         H         E    E     Q.     Q.        H        E  E   
--7------8------|--15---------L--7g8--|--7------8------|--5--------3--5--|
----------------|---------------------|----------------|-----------------|
----------------|---------------------|----------------|-----------------|
----------------|---------------------|----------------|-----------------|
----------------|---------------------|----------------|-----------------|
----------------|---------------------|----------------|-----------------|


  S   H        E.     H.              H.              H.            
--L-5g7--------L---|---------------|---------------|---------------|
-------------------|---------------|---------------|---------------|
-------------------|---------------|---------------|---------------|
-------------------|---------------|---------------|---------------|
-------------------|---------------|---------------|---------------|
-------------------|---------------|---------------|---------------|


   Dsus2                             C6                             
   ^                                 ^                              
   H.               H.               H.               H.            
--10------------|--12------------|---8------------|--10------------|
--10------------|----------------|--10------------|----------------|
---9------------|----------------|---9------------|----------------|
----------------|----------------|----------------|----------------|
----------------|----------------|----------------|----------------|
----------------|----------------|----------------|----------------|


  Bm/5+                            A#6               Dsus4         
  ^                                ^                 ^             
  H.               H.              Q.     Q.         H.            
--7------------|--10------------|--6------8------|--10------------|
--8------------|----------------|--8-------------|---8------------|
--7------------|----------------|--7-------------|---7------------|
---------------|----------------|----------------|----------------|
---------------|----------------|----------------|----------------|
---------------|----------------|----------------|----------------|


  H.              H.              H.              H.            
---------------|---------------|---------------|---------------|
---------------|---------------|---------------|---------------|
---------------|---------------|---------------|---------------|
---------------|---------------|---------------|---------------|
---------------|---------------|---------------|---------------|
---------------|---------------|---------------|---------------|


  C           Csus2              C           Csus2            
  S S S S S S S     S S S S S    S S S S S S S     S S S S S  
------8---------------8-------|------8---------------8-------|
----8---8---8-------8---8---8-|----8---8---8-------8---8---8-|
--9-------9---7-----------7---|--9-------9---7-----------7---|
------------------------------|------------------------------|
------------------------------|------------------------------|
------------------------------|------------------------------|


  C           Csus2              C           Csus2            
  S S S S S S S     S S S S S    S S S S S S S     S S S S S  
------8---------------8-------|------8---------------8-------|
----8---8---8-------8---8---8-|----8---8---8-------8---8---8-|
--9-------9---7-----------7---|--9-------9---7-----------7---|
------------------------------|------------------------------|
------------------------------|------------------------------|
------------------------------|------------------------------|


   D                Dsus2                
   S  S  S  S  S  S S      S  S  S S  S  
--------10-------------------10---------|
-----10----10----10-------10----10---10-|
--11----------11----9--------------9----|
----------------------------------------|
----------------------------------------|
----------------------------------------|


   D                Dsus2                
   S  S  S  S  S  S S      S  S  S S  S  
--------10-------------------10---------|
-----10----10----10-------10----10---10-|
--11----------11----9--------------9----|
----------------------------------------|
----------------------------------------|
----------------------------------------|


   D                Dsus2                
   S  S  S  S  S  S S      S  S  S S  S  
--------10-------------------10---------|
-----10----10----10-------10----10---10-|
--11----------11----9--------------9----|
----------------------------------------|
----------------------------------------|
----------------------------------------|


   D                Dsus2                  C           Csus2            
   S  S  S  S  S  S S      S  S  S S  S    S S S S S S S     S S S S S  
--------10-------------------10---------|------8---------------8-------|
-----10----10----10-------10----10---10-|----8---8---8-------8---8---8-|
--11----------11----9--------------9----|--9-------9---7-----------7---|
----------------------------------------|------------------------------|
----------------------------------------|------------------------------|
----------------------------------------|------------------------------|


  C           Csus2              C           Csus2            
  S S S S S S S     S S S S S    S S S S S S S     S S S S S  
------8---------------8-------|------8---------------8-------|
----8---8---8-------8---8---8-|----8---8---8-------8---8---8-|
--9-------9---7-----------7---|--9-------9---7-----------7---|
------------------------------|------------------------------|
------------------------------|------------------------------|
------------------------------|------------------------------|


  C           Csus2              Bm           Bsus2            
  S S S S S S S     S S S S S    S  S S S S S S     S S S S S  
------8---------------8-------|-------7---------------7-------|
----8---8---8-------8---8---8-|-----7---7---7-------7---7---7-|
--9-------9---7-----------7---|--7--------7---6-----------6---|
------------------------------|-------------------------------|
------------------------------|-------------------------------|
------------------------------|-------------------------------|


  Bm           Bsus4              Bm           Bsus2            
  S  S S S S S S     S S S S S    S  S S S S S S     S S S S S  
-------7---------------7-------|-------7---------------7-------|
-----7---7---7-------7---7---7-|-----7---7---7-------7---7---7-|
--7--------7---9-----------9---|--7--------7---6-----------6---|
-------------------------------|-------------------------------|
-------------------------------|-------------------------------|
-------------------------------|-------------------------------|


  Bm           Bsus4                                                   
  S  S S S S S S     S S S S S    Q.     Q.         H         E    E   
-------7---------------7-------|--7------8------|--15---------L--7g8--|
-----7---7---7-------7---7---7-|----------------|---------------------|
--7--------7---9-----------9---|----------------|---------------------|
-------------------------------|----------------|---------------------|
-------------------------------|----------------|---------------------|
-------------------------------|----------------|---------------------|


  Q.     Q.        H        E  E     S   H        E.     H.            
--7------8------|--5--------3--5--|--L-5g7--------L---|---------------|
----------------|-----------------|-------------------|---------------|
----------------|-----------------|-------------------|---------------|
----------------|-----------------|-------------------|---------------|
----------------|-----------------|-------------------|---------------|
----------------|-----------------|-------------------|---------------|


    NH                            
    H.              H.            
--<>7------------|---------------|
--<>7------------|---------------|
-----------------|---------------|
-----------------|---------------|
-----------------|---------------|
-----------------|---------------|


      NH     NH     NH     NH    NH    NH              
      T      T      T      T     T     T  E.  Q.       
--<>(12)---------------------------------------------||
---------<>(12)--------------------------------------||
----------------<>(12)--------------<>(7)------------||
-----------------------<>(12)-<>(7)------------------||
-----------------------------------------------------||
-----------------------------------------------------||




Ocarina



     H.              H.              H.              Q    E  Q    E   
E||---------------|---------------|---------------|------------------|
B||---------------|---------------|---------------|-------7--8----7--|
G||---------------|---------------|---------------|------------------|
D||---------------|---------------|---------------|------------------|
A||---------------|---------------|---------------|------------------|
E||---------------|---------------|---------------|------------------|


  E  E  E  Q.        H.              H        Q       Q.     Q    E   
------------------|---------------|----------------|-----------------|
--7-----7--8------|--L------------|--L-------------|---------7-------|
-----9------------|---------------|----------------|--------------9--|
------------------|---------------|----------------|-----------------|
------------------|---------------|----------------|-----------------|
------------------|---------------|----------------|-----------------|


  E  E  H           H.              H.              H.            
-----------------|---------------|---------------|---------------|
--------7--------|--L------------|---------------|---------------|
--7--9-----------|---------------|---------------|---------------|
-----------------|---------------|---------------|---------------|
-----------------|---------------|---------------|---------------|
-----------------|---------------|---------------|---------------|


   E  E  E  Q.        H.              Q.     Q.        Q.     Q.      
---------7---------|---------------|----------------|----------------|
--10--8------------|---------------|----------------|---------8------|
------------9------|--L------------|--L-------------|--9-------------|
-------------------|---------------|----------------|----------------|
-------------------|---------------|----------------|----------------|
-------------------|---------------|----------------|----------------|


  H.              H.              H.              H.              H.            
---------------|---------------|---------------|---------------|---------------|
--7------------|--L------------|---------------|---------------|---------------|
---------------|---------------|---------------|---------------|---------------|
---------------|---------------|---------------|---------------|---------------|
---------------|---------------|---------------|---------------|---------------|
---------------|---------------|---------------|---------------|---------------|


  H.              H.              H.              E  E  E  E   E  E   
---------------|---------------|---------------|-----------7---------|
---------------|---------------|---------------|--------8-----10--8--|
---------------|---------------|---------------|-----7---------------|
---------------|---------------|---------------|---------------------|
---------------|---------------|---------------|---------------------|
---------------|---------------|---------------|---------------------|


  E  E  E  E  E  E     Q.     Q    E     Q    Q.     E     H.            
--------------------|-----------------|-----------------|---------------|
--7--8-----8-----8--|-----------------|-----------------|---------------|
--------9-----7-----|--6------L----9--|--7--------------|--7------------|
--------------------|-----------------|-------9---------|---------------|
--------------------|-----------------|-----------------|---------------|
--------------------|-----------------|-----------------|---------------|


   Q.      Q.        Q.      Q.        Q.      Q.         H.            
------------------|--7--------------|-----------------|--10------------|
-----------7------|---------10------|--9------10------|----------------|
--(9)-------------|-----------------|-----------------|----------------|
------------------|-----------------|-----------------|----------------|
------------------|-----------------|-----------------|----------------|
------------------|-----------------|-----------------|----------------|


  H.              H.              H.              H.              H.            
---------------|---------------|---------------|---------------|---------------|
--8------------|--L------------|--L------------|---------------|---------------|
---------------|---------------|---------------|---------------|---------------|
---------------|---------------|---------------|---------------|---------------|
---------------|---------------|---------------|---------------|---------------|
---------------|---------------|---------------|---------------|---------------|


  H.              Q    E  Q    E     E  E  E  Q.        H.            
---------------|------------------|------------------|---------------|
---------------|-------7--8----7--|--7-----7--8------|--L------------|
---------------|------------------|-----9------------|---------------|
---------------|------------------|------------------|---------------|
---------------|------------------|------------------|---------------|
---------------|------------------|------------------|---------------|


  H.              Q.     Q    E     E  E  H           H.            
---------------|-----------------|-----------------|---------------|
---------------|---------7-------|--------7--------|--L------------|
---------------|--------------9--|--7--9-----------|---------------|
---------------|-----------------|-----------------|---------------|
---------------|-----------------|-----------------|---------------|
---------------|-----------------|-----------------|---------------|


  H.              H.               E  E  E  Q.        H.            
---------------|---------------|---------7---------|---------------|
---------------|---------------|--10--8------------|---------------|
---------------|---------------|------------9------|--L------------|
---------------|---------------|-------------------|---------------|
---------------|---------------|-------------------|---------------|
---------------|---------------|-------------------|---------------|


  Q.     Q.        Q.     Q.        H.              H.            
----------------|----------------|---------------|---------------|
----------------|---------8------|--7------------|--L------------|
--L-------------|--9-------------|---------------|---------------|
----------------|----------------|---------------|---------------|
----------------|----------------|---------------|---------------|
----------------|----------------|---------------|---------------|


  H.              H.              H.              H.              H.            
---------------|---------------|---------------|---------------|---------------|
---------------|---------------|---------------|---------------|---------------|
---------------|---------------|---------------|---------------|---------------|
---------------|---------------|---------------|---------------|---------------|
---------------|---------------|---------------|---------------|---------------|
---------------|---------------|---------------|---------------|---------------|


  H.              H.              H.              H.            
---------------|---------------|---------------|---------------|
---------------|---------------|---------------|---------------|
---------------|---------------|---------------|---------------|
---------------|---------------|---------------|---------------|
---------------|---------------|---------------|---------------|
---------------|---------------|---------------|---------------|


  Q.     Q    X T. X T.    E  Q    Q.       
------------------------|-----------------||
-------------------8-7--|--L--------------||
----------------7-------|-----7----L------||
--------------9---------|-----------------||
------------------------|-----------------||
------------------------|-----------------||




Duration Legend
---------------
W - whole
H - half
Q - quarter
E - 8th
S - 16th
T - 32nd
X - 64th
. - note dotted
|-n-|  - n-tuplets


Tablature Legend
----------------
L - tied note
x - dead note
g - grace note
(n) - ghost note
NH - natural harmonic
^ - brush up
Login or Register to remove this ad.

1 comment on Interrupted By Fireworks (SongeLeReveur Version)

It seems like no one

It seems like no one appreciates how great this is tabbed! Well I do! Nice job bro! Keep up the good work!