Ads

Interrupted By Fireworks (Duet) (Final Fantasy VII) Guitar Tab

Submitted: Jun 11, 2009 by TheDoomOfAllFires (Last updated: Feb 04, 2010)

5
Average: 5 (3 votes)
Download | Listen
Game: Final Fantasy VII
Composer(s): Nobuo Uematsu
Style: 2 or more instruments, Arrangement, Fingerstyle
Series: Final Fantasy

AutoScroll: Slow | Medium | Fast
Final Fantasy VII - Interrupted by Fireworks (Duet)
Arranged by TheDoomOfAllFires; 06/11/2009

BPM=88


Hope you like it ! ^^



Guitar 1 (Rhythm) :


      E  E  E  E  E  E  E  E  E  E  E  E   
E||------------0--------------------------|
B||---------3-----3-----0--3-----3-----3--|
G||*-----2-----------2--0-----2-----0-----|
D||*--0-----------------------4-----2-----|
A||---------------------------------------|
E||---------------------------------------|


  E  E  E  E  E  E  E  E  E  E  E  E     E  E  E  E  E  E  E  E  E  E  E  E   
-----------0-----------------0--------|--------------------------------------|
--------3-----3-----------3-----3-----|--------1--3--1-----------1--3--1-----|
-----2-----------2-----2-----------2--|-----0-----------0-----0-----------0--|
--0-----------------0-----------------|--------------------------------------|
--------------------------------------|--3-----------------3-----------------|
--------------------------------------|--------------------------------------|


  E  E  E  E  E  E  E  E  E  E  E  E     E  E  E  E  E  E  E  E  E  E  E  E   
--------------------------------------|-----------0-----------------0--------|
--------1--3--1-----------1--3--1-----|--------3-----3-----------3-----3-----|
-----0-----------0-----0-----------0--|-----2-----------2-----2-----------2--|
--------------------------------------|--0-----------------0-----------------|
--3-----------------3-----------------|--------------------------------------|
--------------------------------------|--------------------------------------|


  E  E  E  E  E  E  E  E  E  E  E  E     E  E  E  E  E  E  E  E  E  E  E  E   
-----------0-----------------0--------|--------------------------------------|
--------3-----3-----------3-----3-----|--------1--3--1-----------1--3--1-----|
-----2-----------2-----2-----------2--|-----0-----------0-----0-----------0--|
--0-----------------0-----------------|--------------------------------------|
--------------------------------------|--3-----------------3-----------------|
--------------------------------------|--------------------------------------|


  E  E  E  E  E  E  E  E  E  E  E  E     E  E  E  E  E  E  E  E  E  E  E  E   
--------------------------------------|--------------------------------------|
--------1--3--1-----------1--3--1-----|-----------2-----------------2--------|
-----0-----------0-----0-----------0--|--------4-----4-----------4-----4-----|
--------------------------------------|-----4-----------4-----4-----------4--|
--3-----------------3-----------------|--2-----------------2-----------------|
--------------------------------------|--------------------------------------|


  E  E  E  E  E  E  E  E  E  E  E  E     E  E  E  E  E  E  E  E  E  E  E  E   
--------------------------------------|--------------------------------------|
-----------2-----------------2--------|--------1--3--1-----------1--3--1-----|
--------4-----4-----------4-----4-----|-----0-----------0-----0-----------0--|
-----4-----------4-----4-----------4--|--------------------------------------|
--2-----------------2-----------------|--3-----------------3-----------------|
--------------------------------------|--------------------------------------|


  E  E  E  E  E  E  E  E  E  E  E  E     E  E  E  E  E  E  E  E  E  E  E  E   
--------------------------------------|--------------------------------------|
-----------0-----------------0--------|--------------------------------------|
--------2-----2-----------2-----2-----|--------0--2--0-----------0--2--0-----|
-----2-----------2-----2-----------2--|-----0-----------0-----0-----------0--|
--0-----------------0-----------------|--------------------------------------|
--------------------------------------|--3-----------------3-----------------|


  E  E  E  E  E  E  E  E  E  E  E  E     E  E  E  E  E  E  E  E  E  E  E  E   
--------------------------------------|-----------2-----------------0--------|
--------------------------------------|--------3-----3-----------2-----2-----|
--------0--2--0-----------0--2--0-----|-----2-----------2-----2-----------2--|
-----0-----------0-----0-----------0--|--0-----------------------------------|
--------------------------------------|--------------------4-----------------|
--3-----------------3-----------------|--------------------------------------|


  E  E  E  E  E  E  E  E  E  E  E  E     E  E  E  E  E  E  E  E  E  E  E  E   
-----------0-----------------0--------|--------------------------------------|
--------1-----1-----------1-----1-----|--------0--3--0-----------0--3--0-----|
-----2-----------2-----2-----------2--|-----0-----------0-----0-----------0--|
--------------------------------------|--------------------------------------|
--3-----------------3-----------------|--2-----------------2-----------------|
--------------------------------------|--------------------------------------|


                                               ^                  
  E  E   E  E  E   E  E  E   E  E  E   E       W.                 
-------------------------------------------||-------------------||
------------3-------------------3----------||--3----------------||
-----0h--3-----3p--0-----0h--3-----3p--0--*||--2----------------||
------------------------------------------*||--4----------------||
-------------------------------------------||--5----------------||
--3-------------------3--------------------||-------------------||


__________________________________


Guitar 2 (Melody) :


      H.           Q    Q    Q       H.           Q    E  E  E  E   
E||----------------7----5----3----|--2-----------------2--3-----2--|
B||----------------8----7----5----|--3-----------------3-----3-----|
G||*------------------------------|--2-----------------------------|
D||*------------------------------|--0-----------------------------|
A||-------------------------------|--------------------------------|
E||-------------------------------|--------------------------------|


  E  E  E  Q.     Q    Q    Q       Q    Q    Q    Q    E  E  E  E   
--2--0--2--3---------------------|-------------------------2-----0--|
-----------3----------------1----|------------1------------3--------|
--0--------5-----------0---------|-------0--------------0-----------|
---------------------------------|----------------------------------|
--3---------------3--------------|--3--------------3----------3-----|
---------------------------------|----------------------------------|


  E  E  H        Q    Q    Q       Q    Q    Q    Q    Q    E  E   
-----0--2-----------------------|---------------------------------|
--3-----3------------------3----|------------3--------------3-----|
-----2----------------2---------|-------2--------------2-------2--|
--0--------------0--------------|--0--------------0---------------|
--------------------------------|---------------------------------|
--------------------------------|---------------------------------|


  E  E  E  Q.     Q    Q    Q       Q    Q    Q    Q.     Q.      
--5--3--7--0---------------------|-----------------0------3------|
----------------------------1----|------------1-----------3------|
--5--------0-----------0---------|-------0---------0-------------|
---------------------------------|-------------------------------|
--3---------------3--------------|--3--------------3------L------|
---------------------------------|-------------------------------|


  H.           E  E  E  E  E   E     E  E  E  E  E   E  E   E  E   E  E  E   
--2-------------------------------|--7-----------3p--2----------------------|
--3------------------------3p--0--|-----7-----0---------3p--0------------0--|
---------------------4------------|--------7--------------------------0-----|
------------------4-----4---------|----------------------------4p--0--------|
--2------------2------------------|-----------------------------------------|
----------------------------------|-----------------------------------------|


  Q.     Q.      Q.     Q    E     Q.     Q.     Q.     E  E  E   
--7------8------15------L----8--|--7------8------5------L--3--5--|
---------8----------------------|---------5----------------------|
--0------9----------------------|---------5------5------L--------|
--------------------------------|--------------------------------|
----------------15------L-------|--0-------------0------L--------|
--8-----------------------------|--------------------------------|


  E  E  E  E  E  E  E  E  E  E  E  E     H        E  E  Q.     Q.      
--7--------7--5-----------------------|--------------0----------------|
--------8--------8--7--8-----8-----8--|-----------------3------0------|
-----7--------------------9-----7-----|--6--------L-----0------0------|
--------------------------------------|------------------------0------|
--------------------------------------|-------------------------------|
--------------------------------------|-----------------3-------------|


  H.           Q.     Q.        Q.     Q.     Q.     Q.      
---------------0------2------|--7------5------4------5------|
--3------------2-------------|------------------------------|
--2------------2------2------|--5------5------5------5------|
--4--------------------------|------------------------------|
-----------------------------|------------------------------|
-----------------------------|------------------------------|


   H.           H.              H.           Q.     Q.        
--10-------------------------|------------------------------||
----------------8------------|------------------------------||
-----------------------------|--0------------2------0------*||
---9------------9------------|--0-------------------0------*||
-----------------------------|------------------------------||
-----------------------------|--3---------------------------||


  ^                  
  W.                 
-------------------||
--3----------------||
--2----------------||
--4----------------||
--5----------------||
-------------------||





Duration Legend
---------------
W - whole
H - half
Q - quarter
E - 8th
S - 16th
T - 32nd
X - 64th
. - note dotted
|-n-|  - n-tuplets


Tablature Legend
----------------
L - tied note
x - dead note
g - grace note
(n) - ghost note
> - accentuded note
NH - natural harmonic
AH - artificial harmonic
TH - tapped harmonic
SH - semi harmonic
PH - pitch harmonic
h - hammer on
p - pull off
b - bend
br - bendRelease
pb - preBend
pbr - preBendRelease
brb - bendReleaseBend
\n/ - tremolo bar dip
\n - tremolo bar dive
-/n - tremolo bar Release up
/n\ - tremolo bar inverted dip
/n - tremolo bar return
-\n - tremolo bar Release down
S - shift slide
s - legato slide
/ -  slide into from below or out of upwards
\ -  slide into from above or out of downwards
~ - vibrato
W - wide vibrato
tr - trill
TP - tremolo picking
T - tapping
S - slap
P - pop
< - fade in
^ - brush up
v - brush down
Login or Register to remove this ad.

4 comments on Interrupted By Fireworks (Duet)

Very cool duet. nice job.

5

Very cool duet. nice job.

Thank you so much for this

Thank you so much for this tab, it's pretty awesome

No, thank YOU :P

No, thank YOU :P

Very nice!

5

Very nice!