Ads

Interrupted By Fireworks (Final Fantasy VII) Guitar Tab

Submitted: Jan 28, 2010 by TheDoomOfAllFires

5
Average: 5 (6 votes)
Download | Listen
Game: Final Fantasy VII
Composer(s): Nobuo Uematsu
Style: Arrangement, Fingerstyle
Series: Final Fantasy

AutoScroll: Slow | Medium | Fast
Final Fantasy VII - Interrupted By Fireworks
Arranged by TheDoomOfAllFires; 01/28/2010

BPM=88
Standard tuning

Solo version of this

      E  E  E  E  E  E  E   E  E  E  E  E   
E||------------0---------------------------|
B||---------3-----3-----0h--3-----3-----3--|
G||*-----2-----------2--0------2-----0-----|
D||*--0------------------------4-----2-----|
A||----------------------------------------|
E||----------------------------------------|


  E  E  E  E  E  E  E  E  E   E  E  E     E  E  E  E  E  E  E  E  E  E  E  E   
-----------0--------------2h--3-----2--|--2--0--2--3--------------------------|
--------3-----3-----------3---------3--|--------1--3--1-----------1--3--1-----|
-----2-----------2-----2---------------|-----0-----------0-----0-----------0--|
--0-----------------0------------0-----|--------------------------------------|
---------------------------------------|--3-----------------3-----------------|
---------------------------------------|--------------------------------------|


  E  E  E  E  E  E  E  E  E  E  E  E     E  E  E  E  E  E  E  E  E  E  E  E   
-----------------------------2-----0--|-----0--2--0-----------------0--------|
--------1--3--1-----------1--3--1-----|--3-----3-----3-----------3-----3-----|
-----0-----------0-----0-----------0--|-----2-----------2-----2-----------2--|
--------------------------------------|--0-----------------0-----------------|
--3-----------------3-----------------|--------------------------------------|
--------------------------------------|--------------------------------------|


  E  E  E  E  E  E  E  E  E  E  E  E     E  E  E  E  E  E  E  E  E  E  E  E   
-----------0-----------------0--------|--5--3--7--0--------------------------|
--------3-----3-----------3-----3-----|-----------3--1-----------1--3--1-----|
-----2-----------2-----2-----------2--|-----0-----------0-----0-----------0--|
--0-----------------0-----------------|--------------------------------------|
--------------------------------------|--3-----------------3-----------------|
--------------------------------------|--------------------------------------|


  E  E  E  E  E  E  E  E  E  E  E  E     E  E  E  E  E  E  E  E  E  E  E   E   
--------------------0--------3--------|--2------------------------------------|
--------1--3--1-----------1--3--1-----|--3--------2-----------------2--3p--0--|
-----0-----------0-----0-----------0--|--------4-----4-----------4-----4------|
--------------------------------------|-----4-----------4-----4---------------|
--3-----------------3-----------------|--2-----------------2------------------|
--------------------------------------|---------------------------------------|


  E  E  E  E  E   E  E  E  E   E  E  E   
--7-----------3p--2---------------------|
-----7-----0---------3--0------2-----0--|
--------7---------------4---------0-----|
--------9------------------4p--0-----4--|
-----9---------------2------------------|
--7-------------------------------------|


                      NH                                                        
  E  E  E  E  E  E    Q    E  E  E  E     E  E  E  E  E  E  E  E  E  E  E   E   
--7--------8------------------------8--|--7--------8--------5-----------3h--5--|
---------------------------------------|-----------0-----------------0---------|
-----0--5--7--5--0--<>5----5--7--5--0--|--------------------------2-----2------|
---------------------------------------|--------7-----7--------2---------------|
--3------------------------------------|-----7-----------7--0------------------|
---------------------------------------|--5------------------------------------|


  E  E  E  E  E  E  E  E  E  E  E  E     E  E  E  E  E  E  E  E  E  E  E  E   
--7--------7--5-----------------------|-----------------0--------------------|
--------8--------8--7--8-----8-----8--|--2-----------------3--------0--------|
-----7--0-----0-----------9-----7-----|--------0--2--0-----0-----0--2--0-----|
-----0-----7-----0-----0-----7-----0--|-----0-----------------0-----0-----0--|
--------------------------------------|--------------------------------------|
--3-----------------3-----------------|--3-----------------3-----------------|


  E  E  E  E  E  E  E  E  E  E  E  E     E  E  E  E  E  E  E  E  E  E  E  E   
-----------2--------0--------2--------|--7--------5--------4--------5--------|
--3-----3-----3-----------2-----2-----|--------------------------------------|
-----2-----------2-----2-----2-----2--|--------5--------5--------5--------5--|
--4-----------------------------------|-----7--------7--------7--------7-----|
--------------------4-----------------|--------------------------------------|
--------------------------------------|--8-----------------------------------|


   E  E  E  E  E  E  E  E  E  E  E  E   
--10-----------------------------------|
---------0-----0-----8-----0-----0-----|
------0-----7-----0-----0-----7-----0--|
---------------------------------------|
---------------------------------------|
---7-----------------7-----------------|


  ^                                        ^                  
  E  E  E  E  E  E  E  E  E  E  E  E       W.                 
---------------------------------------||-------------------||
-----------3-----------------3---------||--3----------------||
--3--0--3-----3--0--2--0--3--0--3--0--*||--2----------------||
--0-----------------------------------*||--4----------------||
---------------------------------------||--5----------------||
--3-----------------3------------------||-------------------||




Duration Legend
---------------
W - whole
H - half
Q - quarter
E - 8th
S - 16th
T - 32nd
X - 64th
. - note dotted
|-n-|  - n-tuplets


Tablature Legend
----------------
L - tied note
x - dead note
g - grace note
(n) - ghost note
> - accentuded note
NH - natural harmonic
AH - artificial harmonic
TH - tapped harmonic
SH - semi harmonic
PH - pitch harmonic
h - hammer on
p - pull off
b - bend
br - bendRelease
pb - preBend
pbr - preBendRelease
brb - bendReleaseBend
\n/ - tremolo bar dip
\n - tremolo bar dive
-/n - tremolo bar Release up
/n\ - tremolo bar inverted dip
/n - tremolo bar return
-\n - tremolo bar Release down
S - shift slide
s - legato slide
/ -  slide into from below or out of upwards
\ -  slide into from above or out of downwards
~ - vibrato
W - wide vibrato
tr - trill
TP - tremolo picking
T - tapping
S - slap
P - pop
< - fade in
^ - brush up
v - brush down
Login or Register to remove this ad.

4 comments on Interrupted By Fireworks

holy crap. wow.

5

holy crap. wow.

Most wonderful.

5

Thank you for the transcription.

Actually...

This is an original work. I thought this was a transcription of something LonLonjp did. Even better!

You're quickly becoming one of my favorite arrangers. Thanks for great work.

The link to the solo version

5

Fantastic tab