Ads

If You Open Your Heart (Final Fantasy VII) Guitar Tab

Submitted: Apr 25, 2010 by Jamming Ninja

5
Average: 5 (3 votes)
Download | Listen
Game: Final Fantasy VII
Composer(s): Nobuo Uematsu
Style: 2 or more instruments, Arrangement, Fingerstyle
Series: Final Fantasy

AutoScroll: Slow | Medium | Fast
Final Fantasy VII
If You Open Your Heart                              
(Arranged by Jammin' Ninja)
Nobuo Uematsu


Base Guitar


     H           E  E  E  E  E  E     E  E  E  E  E  E     E  E  E  E  E  E   
E||-----------|--------------------|--------------------|--------------------|
B||-----------|-----------4--------|-----------4--------|-----------4--------|
G||-----------|--------3-----3--1--|-----1--3-----3--1--|-----1--3-----3--1--|
D||-----------|--4--6--------------|--4-----------------|--4-----------------|
A||-----------|--------------------|--------------------|--------------------|
E||-----------|--------------------|--------------------|--------------------|


  E  E  E  E  E  E     E  E  E  E  E  E     E  E  E  E  E  E   
--------------------|--------------------|--------------------|
-----------4--------|--------1--3--1-----|--------1--3--1-----|
-----1--3-----3--1--|-----0-----------0--|-----0-----------0--|
--4-----------------|--3-----------------|--3-----------------|
--------------------|--------------------|--------------------|
--------------------|--------------------|--------------------|


                       |--3--|  |--3--|  |--3--|   
  E  E  E  E  E  E     E  E  E  E  E  E  E  E  E   
--------------------|--------6--------3-----------|
--------1--3--1-----|-----6--------3-----------6--|
-----0-----------0--|--3--------0-----------5-----|
--3-----------------|--------------------3--------|
--------------------|-----------------------------|
--------------------|-----------------------------|


  |--3--|  |--3--|  |--3--|     |--3--|  |--3--|  3  3    3  
  E  E  E  E  E  E  E  E  E     E  E  E  E  E  E  E  E  S T  
--------3--------3--------3--|--------3--------3--------3---|
-----3--------3--------3-----|-----3--------3--------3------|
--0--------0--------0--------|--0--------0--------0---------|
-----------------------------|------------------------------|
-----------------------------|------------------------------|
-----------------------------|------------------------------|


  E  E  E  E  E  E     E  E  E  E  E  E     E  E  E  E  E  E   
--------------------|--------------------|--------------------|
--------1--3--1-----|--------1--3--1-----|--------1--3--1-----|
-----0-----------0--|-----0-----------0--|-----0-----------0--|
--3-----------------|--3-----------------|--3-----------------|
--------------------|--------------------|--------------------|
--------------------|--------------------|--------------------|


                                            |--3--|  |--3--|  |--3--|   
  E  E  E  E  E  E     E  E  E  E  E  E     E  E  E  E  E  E  E  E  E   
--------------------|--------------------|--------6--------3-----------|
--------1--3--1-----|--------1--3--1-----|-----6--------3-----------6--|
-----0-----------0--|-----0-----------0--|--3--------0-----------5-----|
--3-----------------|--3-----------------|--------------------3--------|
--------------------|--------------------|-----------------------------|
--------------------|--------------------|-----------------------------|


  |--3--|  |--3--|  |--3--|     |--3--|  |--3--|  3  3    3  
  E  E  E  E  E  E  E  E  E     E  E  E  E  E  E  E  E  S T  
--------3--------3--------3--|--------3--------3--------3---|
-----3--------3--------3-----|-----3--------3--------3------|
--0--------0--------0--------|--0--------0--------0---------|
-----------------------------|------------------------------|
-----------------------------|------------------------------|
-----------------------------|------------------------------|


  E  E  E  E  E  E     E  E  E  E  E  E     E  E  E  E  E  E   
--------------------|--------------------|--------------------|
--------1--3--1-----|--------1--3--1-----|-----------1--------|
-----0-----------0--|-----0-----------0--|--------3-----3-----|
--3-----------------|--3-----------------|--1--3-----------3--|
--------------------|--------------------|--------------------|
--------------------|--------------------|--------------------|


  E  E  E  E  E  E     E  E  E  E  E  E     E  E  E  E  E  E   
--------------------|--------------------|--------------------|
-----------1--------|-----------1--------|-----------1--------|
--------3-----3-----|--------3-----3-----|--------3-----3-----|
--1--3-----------3--|--1--3-----------3--|--1--3-----------3--|
--------------------|--------------------|--------------------|
--------------------|--------------------|--------------------|


  E  E  E  E  E  E     E  E  E  E  E  E     E  E  E  E  E  E   
--------------------|--------------------|--------------------|
-----------1--------|-----------1--------|--------------------|
--------3-----3-----|--------3-----3-----|-----------1--------|
--1--3-----------3--|--1--3-----------3--|--------4-----4-----|
--------------------|--------------------|--2--4-----------4--|
--------------------|--------------------|--------------------|


  E  E  E  E  E  E     E  E  E  E  E  E     E  E  E  E  E  E   
--------------------|--------------------|--------------------|
--------------------|--------------------|--------------------|
-----------1--------|-----------1--------|-----------1--------|
--------4-----4-----|--------4-----4-----|--------4-----4-----|
--2--4-----------4--|--2--4-----------4--|--2--4-----------4--|
--------------------|--------------------|--------------------|


  E  E  E  E  E  E     E  E  E  E  E  E     E  E  E  E  E  E   
--------------------|--------------------|--------------------|
--------------------|--------------------|--------------------|
-----------1--------|-----------1--------|-----------1--------|
--------4-----4-----|--------4-----4-----|--------4-----4-----|
--2--4-----------4--|--2--4-----------4--|--2--4-----------4--|
--------------------|--------------------|--------------------|


  E  E  E  E  E  E     E  E  E  E  E  E     S. H        E  T    H        Q     
--------------------|--------------------|-------------------|----------------|
--------------------|--------------------|-------------------|----------------|
-----------1--------|-----------1--------|-------------------|----------------|
--------4-----4-----|--------4-----4-----|-------------------|----------------|
--2--4-----------4--|--2--4-----------4--|--L----------------|----------------|
--------------------|--------------------|-------------------|----------------|


  H        Q       H        Q       H        Q       
----------------|----------------|-----------------||
----------------|----------------|-----------------||
----------------|----------------|----------------*||
----------------|----------------|----------------*||
----------------|----------------|-----------------||
----------------|----------------|-----------------||


Melody Guitar


     H           H.              H.              H.              H.            
E||-----------|---------------|---------------|---------------|---------------|
B||-----------|---------------|---------------|---------------|---------------|
G||-----------|---------------|---------------|---------------|---------------|
D||-----------|---------------|---------------|---------------|---------------|
A||-----------|---------------|---------------|---------------|---------------|
E||-----------|---------------|---------------|---------------|---------------|


  H        E  E     H        E  E     Q    Q    Q       Q    Q    Q      
--6--------------|--6--------------|--6--------------|--6---------------|
-----------8-----|-----------8-----|-------8----6----|--6----8----6s----|
-----------------|-----------------|-----------------|-------7----5s----|
-----------------|-----------------|-----------------|------------------|
-----------------|-----------------|-----------------|------------------|
-----------------|-----------------|-----------------|------------------|


  Q    H           E  E  E  E  E  E     E  E  E  E  E  E     E  E  E  E  E  E   
----------------|--------------------|--------------------|--------------------|
--8----L--------|--------------------|--------------------|--------------------|
--7----L--------|--------------------|--------------------|--------------------|
----------------|--3--5--------3--5--|--------3--5--------|--3--5--------3--5--|
----------------|--3--5--3--5--3--5--|--3--5--3--5--3--5--|--3--5--3--5--3--5--|
----------------|--------1--3--------|--1--3--------1--3--|--------1--3--------|


  H        E  E     H        E  E     Q    Q    Q       Q    Q    Q      
--6--------------|--6--------------|--6--------------|--6---------------|
-----------8-----|-----------8-----|-------8----6----|--6----8----6s----|
-----------------|-----------------|-----------------|-------7----5s----|
-----------------|-----------------|-----------------|------------------|
-----------------|-----------------|-----------------|------------------|
-----------------|-----------------|-----------------|------------------|


  Q    H           E  E  E  E  E  E     E  E  E  E  E  E     E  E  E  E  E  E   
----------------|--------------------|--------------------|--------------------|
--8----L--------|--------------------|--------------------|--------------------|
--7----L--------|--------------------|--------------------|--------------------|
----------------|--3--5--------3--5--|--------3--5--------|--3--5--------3--5--|
----------------|--3--5--3--5--3--5--|--3--5--3--5--3--5--|--3--5--3--5--3--5--|
----------------|--------1--3--------|--1--3--------1--3--|--------1--3--------|


                                            |--3--|            
  H        E  E     Q    E  E  E  E     E   S  S  S  H         
--4--------------|-------------------|------------------------|
-----------6-----|--4-------6--4-----|------------------------|
-----------------|-------6--------3--|--6p--5p-4p-3s-1--------|
-----------------|-------------------|------------------------|
-----------------|-------------------|------------------------|
-----------------|-------------------|------------------------|


  E   E  H           Q    Q     Q       Q    Q     Q        H         E  E   
------------------|------------------|------------------|--12---------------|
------------------|-------9----11----|--L----9----11----|---L--------14-----|
--1s--3--3--------|-------8----10----|--L----8----10----|---L---------------|
------------------|------------------|------------------|-------------------|
------------------|------------------|------------------|-------------------|
------------------|------------------|------------------|-------------------|


                               |--3--|                               
   Q     E   E   E  E      E   S  S  S  H           E   E  H         
-----------------------|-------------------------|------------------|
--12--------14--12--7--|--10p--9p-8p-7s-5--------|--5s--7--7--------|
--------14-------------|-------------------------|------------------|
-----------------------|-------------------------|------------------|
-----------------------|-------------------------|------------------|
-----------------------|-------------------------|------------------|


   ^                                                                            
   H.              E  E  E  E  E  E     E  E  E  E  E  E     E  E  E  E  E  E   
--14------------|--------------------|--------------------|--------------------|
--12------------|--------------------|--------------------|--------------------|
--13------------|--------------------|--------------------|--------------------|
--11------------|--------------------|--2-----2-----2-----|--------------------|
----------------|-----2-----2-----2--|--2--4--2--4--2--4--|-----2-----2-----2--|
----------------|--4--0--4--0--4--0--|-----4-----4-----4--|--4--0--4--0--4--0--|


  E  E  E  E  E  E     E  E  E  E  E  E     Q    E  E  E  E   
--------------------|--------------------|-------------------|
--------------------|--------------------|-------------------|
--------------------|--------------------|-------------------|
--2-----2-----2-----|--2-----2-----2-----|-------------------|
--2--4--2--4--2--4--|--2--4--2--4--2--4--|----------2-----2--|
-----4-----4-----4--|-----4-----4-----4--|-------4--0--4--0--|


  E  E  Q    E  E     E  E  E  E  Q       E  E  E  E  E  E     
-------------------|-------------------|---------------------||
-------------------|-------------------|---------------------||
-------------------|-------------------|--------------------*||
-------------2-----|--2-----2----------|--------------------*||
-----2-------2--4--|--2--4--2--4-------|-----2-----2-----2---||
--4--0----------4--|-----4-----4-------|--4--0--4--0--4--0---||


Duration Legend
---------------
W - whole
H - half
Q - quarter
E - 8th
S - 16th
T - 32nd
X - 64th
. - note dotted
|-n-|  - n-tuplets


Tablature Legend
----------------
L - tied note
x - dead note
g - grace note
(n) - ghost note
> - accentuded note
NH - natural harmonic
AH - artificial harmonic
TH - tapped harmonic
SH - semi harmonic
PH - pitch harmonic
h - hammer on
p - pull off
b - bend
br - bendRelease
pb - preBend
pbr - preBendRelease
brb - bendReleaseBend
\n/ - tremolo bar dip
\n - tremolo bar dive
-/n - tremolo bar Release up
/n\ - tremolo bar inverted dip
/n - tremolo bar return
-\n - tremolo bar Release down
S - shift slide
s - legato slide
/ -  slide into from below or out of upwards
\ -  slide into from above or out of downwards
~ - vibrato
W - wide vibrato
tr - trill
TP - tremolo picking
T - tapping
S - slap
P - pop
< - fade in
^ - brush up
v - brush down
Login or Register to remove this ad.