Ads

Hurry Faster! (Final Fantasy VII) Bass Tab

Submitted: Jul 07, 2009 by auriplane

5
Average: 5 (1 vote)
Download | Listen
Game: Final Fantasy VII
Composer(s): Nobuo Uematsu
Style: Transcription
Series: Final Fantasy

AutoScroll: Slow | Medium | Fast
                 Final Fantasy VII - Hurry Faster!
                       Song by Nobuo Uematsu

              Tabbed by auriplane ([email protected])


This was another song with a good guitar tab, but no bass tab, so
I thought I'd make one :-)  Most of this song is in 6/8 time, but
it changes to 7/8 and 4/4 (or 8/8) here and there.  I'll mark the
time signatures below; when it's in 6/8, note the changing accent
pattern.

Four-string bass, standard tuning.


                   Part A (Play twice)
 
   3/4 time
G |------------|------------|------------|------------|
D |------------|------------|------------|----3-------|
A |5-----5-----|5---3---3---|5-----5-----|5-------6---|
E |------------|------------|------------|------------|

G |------------|------------|------------|------------|
D |------------|------------|------------|--------3-4-|
A |5-----5-----|5---3---3---|5-----5-----|5---6-------|
E |------------|------------|------------|------------|

G |------------|------------|------------|------------|
D |5-----5-----|5---3---6---|5-----------|----3---4---|
A |------------|------------|----5---6---|7-----------|
E |------------|------------|------------|------------|
   
   4/4 time
G |----------------|----------------|
D |5-----5---------|----------------|
A |----------------|----------------|
E |--3-3---3-3-3-3-|3-3-3-3-3-3-3-3-|

   7/8 time
G |--------------|--------------|
D |5-----5-------|--------------|
A |--------------|--------------|
E |--3-3---3-3-3-|3-3-3-3-3-3-3-|

G |--------------|--------------|
D |5-----5-------|--------------|
A |--------------|--------------|
E |--3-3---3-3-3-|3-3-3-3-3-3-3-|

G |--------------|--------------|
D |5-----5-------|--------------|
A |--------------|--------------|
E |--3-3---3-3-3-|3-3-3-3-3-3-3-|


                   Part B (Play twice)

   7/8 time
G |--------------|--------------|--------------|
D |----7-----5-7-|----7-----5-7-|----7-----5-7-|
A |--7-----5-----|--7-----5-----|--7-----5-----|
E |5-----3-------|5-----3-------|5-----3-------|

   4/4 time
G |----------------|----------------|
D |----7---8-5-----|----7---8-5-----|
A |--7---7-----5---|--7---7-----5---|
E |5-------------6-|5-------------6-|


                   Part C

   6/8 time
   >     >      >   >   >    >     >      >   >   >
G |------------|------------|------------|------------|
D |5-5-5-5-5-5-|5-5-5-5-5-5-|------------|------------|
A |------------|------------|5-5-5-5-5-5-|5-5-5-5-5-5-|
E |------------|------------|------------|------------|

   >     >      >   >   >    >     >      >   >   >
G |------------|------------|------------|------------|
D |7-7-7-7-7-7-|7-7-7-7-7-7-|------------|------------|
A |------------|------------|7-7-7-7-7-7-|7-7-7-7-7-7-|
E |------------|------------|------------|------------|

   >     >      >   >   >    >     >      >   >   >
G |------------|------------|------------|------------|
D |------------|------------|8-8-8-8-8-8-|8-8-8-8-8-8-|
A |7-7-7-7-7-7-|7-7-7-7-7-7-|------------|------------|
E |------------|------------|------------|------------|

   >     >      >   >   >    >     >      >   >   >
G |------------|------------|5-5-5-5-5-5-|5-5-5-5-5-5-|
D |------------|------------|------------|------------|
A |8-8-8-8-8-8-|8-8-8-8-8-8-|------------|------------|
E |------------|------------|------------|------------|

   >     >      >   >   >    >     >      >   >   >
G |------------|------------|------------|------------|
D |5-5-5-5-5-5-|5-5-5-5-5-5-|5-5-5-5-5-5-|5-5-5-5-5-5-|
A |------------|------------|------------|------------|
E |------------|------------|------------|------------|

   >     >      >   >   >    >     >      >   >   >
G |------------|------------|------------|------------|
D |------------|------------|------------|------------|
A |8-8-8-8-8-8-|8-8-8-8-8-8-|8-8-8-8-8-8-|8-8-8-8-8-8-|
E |------------|------------|------------|------------|



    Alternate way to play the hard part:

   7/8 time
G |--------------|--------------|--------------|
D |----7---0-5-7-|----7---0-5-7-|----7---0-5-7-|
A |--7-----------|--7-----------|--7-----------|
E |5-----3-------|5-----3-------|5-----3-------|
Login or Register to remove this ad.