Ads

Holding My Thoughts in My Heart (Final Fantasy VII) Guitar Tab

Submitted: Nov 04, 2009 by

5
Average: 5 (7 votes)
Download | Listen
Game: Final Fantasy VII
Composer(s): Nobuo Uematsu
Style: Arrangement, Fingerstyle
Series: Final Fantasy

AutoScroll: Slow | Medium | Fast
     ^                      ^    ^                    ^           ^      ^  
     Q.     E  Q    Q       Q    S Q    Q    E.     S E  E  E  E  Q.     S  
E||--0------L--2----4----|--7----L-5-------------|----0-----4-----2------L-|
B||--0------L------------|--5----L------5--------|----0-----------3------L-|
G||--1------L------------|--5----L-----------5---|--L-1-----------4------L-|
D||--2------L------------|--5----L---------------|----2-----------4------L-|
A||--2------L------------|-----------------------|----2--------------------|
E||----------------------|--5----L---------------|-------------------------|


  ^                   ^                      ^                       
  W                   H        Q    Q        Q     Q     Q     Q     
--L----------------|--5--------7----9----|--12----10----------------|
--L----------------|--5------------------|--10----------10----------|
--L----------------|--6------------------|--10----------------10----|
--L----------------|--7------------------|--------------------------|
-------------------|---------------------|--------------------------|
-------------------|---------------------|--------------------------|


  ^           ^                                                        
  E  E  E  E  H           W                   E  E  E  E  E  E  E  E   
--5-----9-----7--------|--L----------------|--------------------------|
--5-----------8--------|--L----------------|--1--------1--------3-----|
--6-----------7--------|--L----------------|--------0-----0--------0--|
--7--------------------|-------------------|-----2-----------2--------|
-----------------------|-------------------|--3-----------------3-----|
-----------------------|-------------------|--------------------------|


  E  E  E  E  E  E  E  E     E  E  E  E  E  E  E  E   
-----0--------7--------7--|--------5--------5--------|
--------3--------5--------|--5--------5--------5-----|
-----------0--------5-----|-----5--------5--------5--|
--2-----------------------|--------------------------|
--------------------------|--------------------------|
--------------5-----------|--------5-----------------|


  E  E  E  E  E  E  E  E     E  E  E  E  E  E  E  E   
--------------------------|-----0--------------------|
-----------1--------3-----|--------3-----8--------6--|
--------0-----0--------0--|-----------0--------5-----|
-----2-----------2--------|--2--------------6--------|
--3-----------------3-----|--------------------------|
--------------------------|--------------4-----------|


  E  E  E  E  E  E  E  E     E  E  E  E  E  E  E  E   
--------------------------|--0--------0--------------|
--------1--------3--------|--------1-----1-----1-----|
--5-----------3-----3-----|-----0-----------0--------|
-----6-----3-----------3--|-----------------------2--|
--------1-----------------|--3-----------------3-----|
--------------------------|--------------------------|


  E  E  E  E  E  E  E  E     E  E  E  E  E  E  E  E   
-----------------------0--|--------0--------0--------|
-----1--------------1-----|--1--------1--------1-----|
--0-----0--------0--------|-----0--------0--------0--|
-----------2--------------|--------------------------|
--------------3-----------|--------3-----------------|
--------------------------|--------------------------|


    E  E  E   E  E  E   E  E     E  E  E  E  E  E  E  E   
|------------12--------10-----|-----8--------8--------7--|
|----------------8---------8--|--------8--------6--------|
|*--------0---------9---------|--9--------9--------5-----|
|*-----2----------------------|--------------------------|
|---3-------------------------|--------------------------|
|-----------------------------|--------------------------|


  E  E  E  E  E  E  E  E     E  E  E  E  E  E  E  E   
--------5--------8--------|--8--------0--------0-----|
--6--------6--------6-----|--------1-----1--------1--|
-----5--------5--------5--|-----0-----------0--------|
--------------------------|--------------------------|
--------------------------|--------------------------|
--------------------------|--------------------------|


  E  E  E  E  E  E  E  E     E  E  E  E  E  E  E  E     
-----0-----------------0--|--------0--------0---------||
--------1-----------1-----|--1--------1--------1------||
--0--------0-----0--------|-----0--------0--------0--*||
--------------------------|--------------------------*||
--------------3-----------|---------------------------||
--------------------------|---------------------------||


  E  E  E  E  E  E  E  E     E  E  E  E  E  E  E  E   
--------------------------|-----2--------9--------9--|
--3--------3--------5-----|--------5--------7--------|
--------2-----2--------2--|-----------2--------7-----|
-----4-----------4--------|--4-----------------------|
--5-----------------5-----|--------------------------|
--------------------------|--------------7-----------|


  E  E  E  E  E  E  E  E     E  E  E  E  E  E  E  E   
--------7--------7--------|--------------------------|
--7--------7--------7-----|-----------3--------5-----|
-----7--------7--------7--|--------2-----2--------2--|
--------------------------|-----4-----------4--------|
--------------------------|--5-----------------5-----|
--------7-----------------|--------------------------|


  E  E  E  E   E  E  E  E     E  E  E  E  E  E  E  E   
-----2---------------------|--------------------------|
--------5-----10--------8--|--------3--------5--------|
-----------2---------7-----|--7-----------5-----5-----|
--4---------------8--------|-----8-----5-----------5--|
---------------------------|--------3-----------------|
---------------6-----------|--------------------------|


  E  E  E  E  E  E  E  E     E  E  E  E  E  E  E  E   
--2--------2--------------|--------------2--------2--|
--------3-----3-----3-----|-----3--------------3-----|
-----2-----------2--------|--2-----2--------2--------|
-----------------------4--|-----------4--------------|
--5-----------------5-----|--------------5-----------|
--------------------------|--------------------------|


  E  E  E  E  E  E  E  E      E  E  E  E  E  E  E  E   
--------2--------2--------|--10--------8--------6-----|
--3--------3--------3-----|---------6--------6--------|
-----2--------2--------2--|------7--------7--------7--|
--------------------------|---------------------------|
--------5-----------------|---------------------------|
--------------------------|---------------------------|


  E  E  E  E   E  E  E  E     E  E  E  E  E  E  E  E   
-----8--------10--------8--|--------6--------8--------|
--6--------6---------8-----|-----8--------8--------8--|
--------7---------9--------|--9--------9--------9-----|
---------------------------|--------------------------|
---------------------------|--------------------------|
---------------------------|--------------------------|


   E  E  E  E  E  E  E  E     E  E  E  E   E  E  E  E   
--10--------9--------7-----|-----9--------10--------9--|
---------7--------7--------|--7--------7---------7-----|
------7--------7--------7--|--------7---------7--------|
---------------------------|---------------------------|
---------------------------|---------------------------|
---------------------------|---------------------------|


  E  E  E  E  E  E  E  E      E  E  E  E  E  E  E  E   
--------7--------9--------|--10--------8--------6-----|
-----7--------7--------7--|---------6--------6--------|
--7--------7--------7-----|------7--------7--------7--|
--------------------------|---------------------------|
--------------------------|---------------------------|
--------------------------|---------------------------|


  E  E  E  E   E  E  E  E     E  E  E  E  E  E  E  E   
-----8--------10--------8--|--------6--------8--------|
--6--------6---------8-----|-----8--------8--------8--|
--------7---------9--------|--9--------9--------9-----|
---------------------------|--------------------------|
---------------------------|--------------------------|
---------------------------|--------------------------|


                                           ^                
   E  E  E  E  E  E  E  E     E  E  E  E   H                
--10--------9--------7-----|-----9--------10--------|-----||
---------7--------7--------|--7--------7---7--------|-----||
------7--------7--------7--|--------7------7--------|-----||
---------------------------|------------------------|-----||
---------------------------|------------------------|-----||
---------------------------|------------------------|-----||
Login or Register to remove this ad.

1 comment on Holding My Thoughts in My Heart

Wow! This Is Amazing Well

5

Wow! This Is Amazing
Well Done