Great Warrior (Final Fantasy VII) Guitar Tab

Submitted: Dec 03, 2010 by (Last updated: Dec 03, 2010)

4.333335
Average: 4.3 (3 votes)
Download | Listen
Game: Final Fantasy VII
Composer(s): Nobuo Uematsu
Style: Transcription
Series: Final Fantasy

AutoScroll: Slow | Medium | Fast
The Great Warrior
Final Fantasy 7
Nobuo Uematsu
Link Strife07
12/2/10

e| ----12---12---12--14---12---10------------------|
B| ------------------------------------------------|
G| ------------------------------------------------|
D| ------------------------------------------------|
A| ------------------------------------------------|
E| ------------------------------------------------|

e| ----12---12--15--14---12---10-------------------|
B| ------------------------------------------------|
G| ------------------------------------------------|
D| ------------------------------------------------|
A| ------------------------------------------------|
E| ------------------------------------------------|

e| ----5-----3--5--7-----8--7--8--10------7--------|
B| ------------------------------------------------|
G| ------------------------------------------------|
D| ------------------------------------------------|
A| ------------------------------------------------|
E| ------------------------------------------------|

e| ----12---12---12--14---12---10------------------|
B| ------------------------------------------------|
G| ------------------------------------------------|
D| ------------------------------------------------|
A| ------------------------------------------------|
E| ------------------------------------------------|

e| ----12---12--15--14---12---10-------------------|
B| ------------------------------------------------|
G| ------------------------------------------------|
D| ------------------------------------------------|
A| ------------------------------------------------|
E| ------------------------------------------------|

e| ----5-----3--5--7-----8--7--8--10---12----------|
B| ------------------------------------------------|
G| ------------------------------------------------|
D| ------------------------------------------------|
A| ------------------------------------------------|
E| ------------------------------------------------|


e| ----15--14--10--12------------------------------|
B| ------------------------------------------------|
G| ------------------------------------------------|
D| ------------------------------------------------|
A| ------------------------------------------------|
E| ------------------------------------------------|

e| ----7---7---7--10--7--5-------------------------|
B| ------------------------------------------------|
G| ------------------------------------------------|
D| ------------------------------------------------|
A| ------------------------------------------------|
E| ------------------------------------------------|

e| ----3---2---0-----------------------------------|
B| ------------------------------------------------|
G| ------------------------------------------------|
D| ------------------------------------------------|
A| ------------------------------------------------|
E| ------------------------------------------------|

e| --0-2-3-5--7---7---7---10--7--5-----------------|
B| ------------------------------------------------|
G| ------------------------------------------------|
D| ------------------------------------------------|
A| ------------------------------------------------|
E| ------------------------------------------------|

e| ----3---2---0-----------------------------------|
B| ------------------------------------------------|
G| ------------------------------------------------|
D| ------------------------------------------------|
A| ------------------------------------------------|
E| ------------------------------------------------|

e| ----0--0--0------0--3---------------------------|
B| --------------3---------------------------------|
G| ------------------------------------------------|
D| ------------------------------------------------|
A| ------------------------------------------------|
E| ------------------------------------------------|

e| -3---5-3---7---7---7--5-3-5--7------------------|
B| ------------------------------------------------|
G| ------------------------------------------------|
D| ------------------------------------------------|
A| ------------------------------------------------|
E| ------------------------------------------------|

e| ---4---4---4---2--4--7--------------------------|
B| ------------------------------------------------|
G| ------------------------------------------------|
D| ------------------------------------------------|
A| ------------------------------------------------|
E| ------------------------------------------------|

e| ---4---4---4--2--4------------------------------|
B| ------------------------------------------------|
G| ------------------------------------------------|
D|-------------------------------------------------|
A| ------------------------------------------------|
E| ------------------------------------------------| 

Repeat and enjoy! 
Login or Register to remove this ad.