Ads

Good Night, Until Tomorrow (Final Fantasy VII) Guitar Tab

Submitted: Feb 07, 2013 by Colin_spade

5
Average: 5 (4 votes)
Download | Listen
Game: Final Fantasy VII
Composer(s): Nobuo Uematsu
Style: Arrangement, Fingerstyle
Series: Final Fantasy

AutoScroll: Slow | Medium | Fast
Track 1 (Capo 2)
                 ^                        ^          
     E  E  E  E  Q    Q       E  E  E  E  Q    Q     
D||--4-----0--0--0---------|------------------------|
B||--------0-----0----0----|--0---------------------|
G||-----0--------0----L----|--------0--0-------0----|
D||--2-----------2----L----|--------2-----2---------|
A||--------------3----L----|--0--3--------3---------|
E||------------------------|--------------5---------|


                              ^                                      
  E  E  E  E  E  E  E  S S    W                                      
---------------------------|--4----------------|-------------------||
---------------------------|--0----------------|-------------------||
--------------------2--2-0-|--0----------------|-------------------||
-----------0--4--2---------|-------------------|-------------------||
--------2------------------|-------------------|-------------------||
--0--3---------------------|--0----------------|-------------------||




Duration Legend
---------------
W - whole
H - half
Q - quarter
E - 8th
S - 16th
T - 32nd
X - 64th
. - note dotted
|-n-|  - n-tuplets


Tablature Legend
----------------
L - tied note
x - dead note
g - grace note
(n) - ghost note
> - accentuded note
NH - natural harmonic
AH - artificial harmonic
TH - tapped harmonic
SH - semi harmonic
PH - pitch harmonic
h - hammer on
p - pull off
b - bend
br - bendRelease
pb - preBend
pbr - preBendRelease
brb - bendReleaseBend
\n/ - tremolo bar dip
\n - tremolo bar dive
-/n - tremolo bar Release up
/n\ - tremolo bar inverted dip
/n - tremolo bar return
-\n - tremolo bar Release down
S - shift slide
s - legato slide
/ -  slide into from below or out of upwards
\ -  slide into from above or out of downwards
~ - vibrato
W - wide vibrato
tr - trill
TP - tremolo picking
T - tapping
S - slap
P - pop
< - fade in
^ - brush up
v - brush down
Login or Register to remove this ad.

1 comment on Good Night, Until Tomorrow

This is gorgeous!

5

This is gorgeous!