Ads

The Gold Saucer (Final Fantasy VII) Guitar Tab

Submitted: Oct 05, 2010 by Daugreano

5
Average: 5 (2 votes)
Download | Listen
Game: Final Fantasy VII
Composer(s): Nobuo Uematsu
Style: Alternate picking, Transcription
Series: Final Fantasy

This song is also called Golden Saucer

AutoScroll: Slow | Medium | Fast
Song: Golden Saucer
Game: Final Fantasy VII
Composer: Nobuo Uematsu
Tabbed by: Daugreano

Guitar: 

   S  S  S  S  E   S  S  S  S  S  S  S  S  S  S    S  S  S  S  S  S  S  S  S  S  S  S  S  S  S  S
E|--------------------------------------------12-|-------------------------------------------------|
B|-----------------------12-------------12-13----|-15----------15----------------------------------|
G|-------12----11--12-14-------12----14----------|-------12----------12----14-12-11-12-14----------|
D|-12--------------------------------------------|-------------------------------------------14----|
A|-----------------------------------------------|-------------------------------------------------|
E|-----------------------------------------------|-------------------------------------------------|

   S  S  S  S  E   S  S  S  S  S  S  E   S  S    S  S  S  S  S  S  S  S  S  S  S  S  Q
E|---------------------------------------------|-------------12---------------------------|
B|-----------------------12--------------12-13-|-15----------------------12---------------|
G|-------12----11--12-14-------12----14--------|-------12----------12-------14-12-11-12---|
D|-12------------------------------------------|------------------------------------------|
A|---------------------------------------------|------------------------------------------|
E|---------------------------------------------|------------------------------------------|

Repeat the 1st four measures then play this...

   S  S  S  S  S  S  E   E   E   E   S  S    E   E   E   E   E   S  S  E   S  S 
E|---------------------------12------------|-------------------------------------|
B|----------12-------15--14----------12-14-|-15--12------------------------------|
G|-11-12-14----14----------------14--------|---------14--12--11-----12-11--------|
D|-----------------------------------------|---------------------14--------12----|
A|-----------------------------------------|-------------------------------------|
E|-----------------------------------------|-------------------------------------|

   E   E   E.   S  E   E   E.   S    E   E   S  S  S  S  S  S  S  S  E   E     S  S  S  S  S  S  E   E   E   E   S  S
E|---------------------------------|-----------------------------------------|---------------------------12------------|
B|---------------------------------|---------12------------------------------|----------12-------15--14----------12-14-|
G|---------------------11--12---11-|-12--14-----14-12-11----11-12-11---------|-11-12-14----14----------------14--------|
D|-11--12--14---12-14--------------|---------------------14----------14------|-----------------------------------------|
A|---------------------------------|-----------------------------------------|-----------------------------------------|
E|---------------------------------|-----------------------------------------|-----------------------------------------|

   E   E   E   E   E   E   E   E     E   E   E   E   Q.    S  S    E   E   E   E   Q    E   E
E|---------------------------------|-----------------------------|------------------------------|
B|-15--12--------------------------|-----------------------------|------------------------------|
G|---------14--12--11--12--14------|-----12--11------------------|-----12--11-------------------|
D|---------------------------------|-14----------12--14-------12-|-14----------12--14---14------|
A|---------------------------------|-----------------------------|------------------------------|
E|---------------------------------|-----------------------------|------------------------------|

   E   E   E   E   Q.    S  S    E   E   E   E   Q    E   E     E   E   E   E   Q.    S  S
E|-----------------------------|------------------------------|-----------------------------|
B|-----12----------------------|-----12-----------------------|-----------------------------|
G|-12------14--11--12-------11-|-12------14--11--12---12------|-----12--11------------------|
D|-----------------------------|------------------------------|-14----------12--14-------12-|
A|-----------------------------|------------------------------|-----------------------------|
E|-----------------------------|------------------------------|-----------------------------|

   E   E   E   E   Q    E   E     E   E   E   E   Q.    S  S    E   E   S  S  S  S  E   E   Q
E|------------------------------|-----------------------------|------------------12--------------|
B|------------------------------|-----12----------------------|-----12-----12-13----15-----------|
G|-----12--11-------------------|-12------14--11--12-------11-|-12------14--------------12--11---|
D|-14----------12--14---14------|-----------------------------|----------------------------------|
A|------------------------------|-----------------------------|----------------------------------|
E|------------------------------|-----------------------------|----------------------------------|

Then repeat the whole thing...a bunch of times.

Login or Register to remove this ad.

1 comment on The Gold Saucer

Sounds perfect, good job (:

5

Sounds perfect, good job (: